Табулатура Mike Oldfield | Part 2- Platinum гитара табулатуры уроки тексты песен Mike Oldfield текст lyrics песня аккорды песни ноты нота электрогитара струна  
   А Б В Г Д Е Ж З И К Л М Н О П Р С Т У Ф Х Ч Ш Ы Э Ю Я       Разные песни
1-9 A B C D E F G H I J K L M N O P Q R S T U V W Y Z      Все исполнители

    



группа Mike Oldfield, Табулатура песни Part 2- Platinum

Группа: Mike Oldfield - другие аккорды (207),   об исполнителе (3 статей),   диски (26),   фотографии (18)
Табулатура песни: Part 2- Platinum
Просмотров: 876
Прислал: squire (cailinsquires@yahoo.ie)




    
***** Platinum (live) - 00'06 to 01'12 *****
by nico, nicolas.ramain@wanadoo.fr
-=-=-=-=-=-=-=-=-=-=-=-=-=-=-=-=- TABLATURE EXPLANATION -=-=-=-=-=-=-=-=-=-=-=-=-=-=-=-
P.M.: Palm Muting
x: Left hand muting
5h(7): Hammer-on
7p(5): Pull-off
3/(8): Slide up
8(3): Slide down
=> The notes in brackets are not struck.
-=-=-=-=-=-=-=-=-=-=-=-=-=-=-=-=-=-=-=-=-=-=-=-=-=-=-=-=-=-=-=-=-=-=-=-=-=-=-=-=-=-=-=-
No rhythm tabbed.
Distorted Guitar Part (0006-0112) :
  Part 1                    Part 2                       Part 1
e:-------------------------|----------------------------|------|
B:-------------------------|----------------------------|------|
G:-------------------------|----------------------------|------|
D:----------22-00----------|----------22-00-5x----------|------|
A:-00-22-33-------33-22----|-00-22-33----------5x-5/(7)-|------|
E:----------------------33-|----------------------------|------|
   P.M.---                                                            
  Part 3                                               Part 3
e:----------------------------------------------------|------|
B:----------------------------------------------------|------|
G:----------------------------------------------------|------|
D:----------22-00-5x-5x-5/(7)-77-55-33-22-00-------22-|------|
A:-00-22-33----------------------------------33-22----|------|
E:----------------------------------------------------|------|
                             Part 4                            Part 2 Part 4
e:--------------------------|---------------------------------|------|------|
B:--------------------------|---------------------------------|------|------|
G:--------------------------|---------------------------------|------|------|
D:----------22-00-----------|----------22-00-------------0----|------|------|
A:-00-22-33-------2x--------|-00-22-33-------3h(5)p(3)-2------|------|------|
E:-------------------3x-5-0-|------------------------------33-|------|------|

Продолжаем грести бабос на ботах в Telegram.
Только в этот раз есть вариант автоматизировать это дело, привлекая рефералов. Вы можете заработать если »

e:------------------------------------------------------------------------| B:------------------------------------------------------------------------| G:------------------------------------------------------------------------| D:----------22-00------------------------00-22-33----------------00-22-33-| A:-00-22-33-------2x------------00-33-33----------------00-11-33----------| E:-------------------3x-5-11-33-------------------11-33-------------------| e:-------------------------------------------------| B:-------------------------------------------------| G:-------------------------------------------------| D:-33----------------------------------------------| A:----33-00-------33----33-------00-33----33-------| E:----------11-33----33----11-33-------33----33-11-| e:-------------------------------------------------| B:-------------------------------------------------| G:----------------------------------------33-55-66-| D:-------33-66-------------------33-44-66----------| A:-44-66-------------33-44-44-66-------------------| E:-------------44-66-------------------------------| e:-------------------------------------------------| B:-------------------------------------------------| G:-66----------------------------------------------| D:----66-33-------66-------------33-66-------------| A:----------44-66-------33-44-66-------66-33----44-| E:-------------------44----------------------44----| e:------------------------------------------------------------------------| B:------------------------------------------------------------------------| G:------------------------------------------------------------------------| D:----------22-22-44-66-77----------00-22-44-66-77-7777777---09---10---12-| A:-00-22-44----------------00-22-44---------------------------------------| E:---------------------------------------------------------5/07-7/08-8/10-| duddudd x7 x7 x7








О сайтеАккордыХит-парадПоискУроки ФорумыИщу песню
ПрограммыСвежачок-сПодпискаСтатьи
Яндекс.Метрика