Табулатура Mike Oldfield | Ommadawn Part One (instrumental) гитара табулатуры уроки тексты песен Mike Oldfield текст lyrics песня аккорды песни ноты нота электрогитара струна  
   А Б В Г Д Е Ж З И К Л М Н О П Р С Т У Ф Х Ч Ш Ы Э Ю Я       Разные песни
1-9 A B C D E F G H I J K L M N O P Q R S T U V W Y Z      Все исполнители

    



группа Mike Oldfield, Табулатура песни Ommadawn Part One (instrumental)

Группа: Mike Oldfield - другие аккорды (207),   об исполнителе (3 статей),   диски (26),   фотографии (18)
Табулатура песни: Ommadawn Part One (instrumental)
Просмотров: 868
Прислал: squire (cailinsquires@yahoo.ie)




    
 -----------------------------------
 MIKE OLDFIELD - Part 1 16:20=>18:29
 From "Ommadawn" (1975) 
 -----------------------------------                              
Transcribed by Nico (nicolar@normandnet.fr)
~~~~~~~~~~~~~~~~ TABLATURE EXPLANATION ~~~~~~~~~~~~~~~~
5h7 | 7p5: Hammer-on | Pull-off
3/8 | 83: Slide-up | Slide-down
5b: Bend up
pb9r(7): Pre-bend and release at the 7th fret
(7): Non-struck note
~~~~~~~~~~~~~~~~~~~~~~~~~~~~~~~~~~~~~~~~~~~~~~~~~~~~~~~
24 frets guitar solo...
e:-4/16-----16-17-16--16-14-16-14-14-14-14--------14--------14--14-
B:-----14-14--------14------------17b------------------------------
G:----------------------------------------16-14-16--16-14-16--16---
D:-----------------------------------------------------------------
A:-----------------------------------------------------------------
E:-----------------------------------------------------------------
e:-17-14-14-14------------------------------------15--------------17-
B:-------17b--17-14-14-14---------17---------------------------------
G:------------------16b---16-14-16--16-14-16-14-16--16-14-16-14-16---
D:-------------------------------------------------------------------
A:-------------------------------------------------------------------
E:-------------------------------------------------------------------
   x2####################
e:---------------19-19-16-16-16-16--16-----------------------14-14-14-14-
B:---------------------19b------------19-16(14)-14-14-14-17-17b---------
G:-16-14-16-14-16--------------------------------16b---------------------
D:-----------------------------------------------------------------------
A:-----------------------------------------------------------------------
E:-----------------------------------------------------------------------
                                                 x3###
e:-16-16-16-16-17-17-17-17-19-19-19-19-21-21-21-21-21-23-19-21--------------|
B:-19b---------20b---------22b--------------------------------21--21--21-21-|
G:--------------------------------------------------------------------------|
D:--------------------------------------------------------------------------|
A:--------------------------------------------------------------------------|
E:--------------------------------------------------------------------------|
                                                       
  17:08

Продолжаем грести бабос на ботах в Telegram.
Только в этот раз есть вариант автоматизировать это дело, привлекая рефералов. Вы можете заработать если »

e:----------------|-----|----------|------------|18--| B:16h19-14h16-----|16h19|14h16-----|pb21r(19)-16|--16| G:-----------16-15|-----|-----16-15|------------|----| D:----------------|-----|----------|------------|----| A:----------------|-----|----------|------------|----| E:----------------|-----|----------|------------|----| e:----------------|------------------|16(14)--|18--|19--|21--|23--| B:16h19-14h16-----|pb21r(19)-16---19b|-------16|--16|--16|--16|--16| G:-----------16-15|------------------|---------|----|----|----|----| D:----------------|------------------|---------|----|----|----|----| A:----------------|------------------|---------|----|----|----|----| E:----------------|------------------|---------|----|----|----|----| e:22b-21--|21--|-------------|16(14)--|18--|19--|21--|23-23--| B:------16|--16|16h19-14h16--|-------16|--16|--16|--16|-----16| G:--------|----|-----------16|---------|----|----|----|-------| D:--------|----|-------------|---------|----|----|----|-------| A:--------|----|-------------|---------|----|----|----|-------| E:--------|----|-------------|---------|----|----|----|-------| e:22b-21--|21-21--|20b-19p18-16h19-18p16--18p16-----16--------------------| B:------16|-----16|---------------------19-----19-17--19p17-16h19-17p16---| G:--------|-------|----------------------------------------------------18| D:--------|-------|-------------------------------------------------------| A:--------|-------|-------------------------------------------------------| E:--------|-------|-------------------------------------------------------| e:--------|---------------------|----------------|-----------|-------------| B:19p17-16|16h19-14h16----------|16h19-14h16-----|16h19-16h19|14h16--------| G:--------|-----------16-15(13)|-----------16-15|-----------|-----16-15-13| D:--------|---------------------|----------------|-----------|-------------| A:--------|---------------------|----------------|-----------|-------------| E:--------|---------------------|----------------|-----------|-------------| e:24b-23-23b-21-23b-23-23| B:------------------------| G:------------------------| D:------------------------| A:------------------------| E:------------------------|








О сайтеАккордыХит-парадПоискУроки ФорумыИщу песню
ПрограммыСвежачок-сПодпискаСтатьи
Яндекс.Метрика