Табулатура Mike Oldfield | Ommadawn Part One (instrumental) гитара табулатуры уроки тексты песен Mike Oldfield текст lyrics песня аккорды песни ноты нота электрогитара струна  
   А Б В Г Д Е Ж З И К Л М Н О П Р С Т У Ф Х Ч Ш Ы Э Ю Я       Разные песни
1-9 A B C D E F G H I J K L M N O P Q R S T U V W Y Z      Все исполнители

    



группа Mike Oldfield, Табулатура песни Ommadawn Part One (instrumental)

Группа: Mike Oldfield - другие аккорды (207),   об исполнителе (3 статей),   диски (26),   фотографии (18)
Табулатура песни: Ommadawn Part One (instrumental)
Просмотров: 734
Прислал: squire (cailinsquires@yahoo.ie)




    
here is my version of the ommadawn beginning.
i think this is how it was played live at knebworth
any critisism is welcome.
stein@pobox.dk
 
 
         h   h                h
------------------9-------9--10--9---------------------------------------------------------------------------------------
---9--10--12------12--------------12--9----12--12---10--9-------10---10--12--10--9-----9--10--9--------
------------------------------------------------------------------------11----------------------------9--------------11---
------------------------------------------------------------------------------------------------------------------------------
------------------------------------------------------------------------------------------------------------------------------
------------------------------------------------------------------------------------------------------------------------------
 
 
--------------------------------------------------------------------------------------------------------------------------------
--------------------------------------------------------------------------------------------------------------------------------
---11-----11--11-----9--------------------------------------------------9-------------------------------------------------

Продолжаем грести бабос на ботах в Telegram.
Только в этот раз есть вариант автоматизировать это дело, привлекая рефералов. Вы можете заработать если »

------------------------------11---9---11----------------9--9--9--9------12---11-----9----11------------------------ -----------------------------------------------12----12--------------------------------------------------12----------------- -------------------------------------------------------------------------------------------------------------------------------- and so on and so on. there is a small variation where the last part goes up in key. ---15-----15--15--13------------------------------------------------13-------------------------------------------------- ---------------------------15--13---15-------------13-13-13-13-------16--15----13---15--13------------------- ---------------------------------------------15--15---------------------------------------------------------15---12------ ------------------------------------------------------------------------------------------------------------------------------- ------------------------------------------------------------------------------------------------------------------------------- ------------------------------------------------------------------------------------------------------------------------------- I hope you guys can use any of this. Its the first time i write a tab on the computer so the timing may be a bit of.








О сайтеАккордыХит-парадПоискУроки ФорумыИщу песню
ПрограммыСвежачок-сПодпискаСтатьи
Яндекс.Метрика