Табулатура Mike Oldfield | Hergest Ridge Part One (instrumental) гитара табулатуры уроки тексты песен Mike Oldfield текст lyrics песня аккорды песни ноты нота электрогитара струна  
   А Б В Г Д Е Ж З И К Л М Н О П Р С Т У Ф Х Ч Ш Ы Э Ю Я       Разные песни
1-9 A B C D E F G H I J K L M N O P Q R S T U V W Y Z      Все исполнители

    



группа Mike Oldfield, Табулатура песни Hergest Ridge Part One (instrumental)

Группа: Mike Oldfield - другие аккорды (207),   об исполнителе (3 статей),   диски (26),   фотографии (18)
Табулатура песни: Hergest Ridge Part One (instrumental)
Просмотров: 1114
Прислал: squire (cailinsquires@yahoo.ie)




    
**** Mike Odlfield - Hergest Ridge Part One (Guitar & Oboe excerpt) - 8:43 ****
Tabbed by Nino Bosnic (nino.bosnic@zg.hinet.hr)
I've always liked this piece of Hergest Ridge and wanted to tab out the guitar.
I couldn't capture every little thing but I think it's as good as it can be.
The guitar tab is a bit awkward to play at some points but i'm working on that...
2h3 - hammer on
3p2 - pull off
(2) - ghost (quiet) note
Rhythm explanation:
It's a 4/4 time signature..
- I  (1 quarter note)
- II (2 quarter notes)
...
G U I T A R :
     I    I    I    I       I    I    I    I       I    I    I    I     
E||--0--------------2----|--0---------2---------|----------------------|
B||-------0--------------|----------------------|--3-------------------|
G||----------------------|-------0---------0----|-------0---------0----|
D||--2---------2----0----|------------0---------|------------0---------|
A||----------------------|--3-------------------|--2-------------------|
E||----------------------|----------------------|----------------------|
  I    I     I     I        I    I     I    I       I    I    I    I     
--0-------------------0--|--3-------3--3----2----|--0---------2---------|
-------0h-1p-0-----------|-----------------------|----------------------|
-------0--------0--------|-------0---------------|-------0---------0----|
-------------------2--0--|--2----------2----0----|------------0---------|
--3----------------------|-----------------------|--3-------------------|
-------------------------|-----------------------|----------------------|
  I    I    I    I           I    I    I    I       I    I     I    I     
--------------------------|--0----2----3----5----|--7-------7--7----5----|
--3-----------------------|----------------------|-----------------------|
-------0---------------0--|----------------------|-------0-----0---------|
------------0-------0-----|-------0----2----4----|------------------4----|
--2--------------2--------|--3-------------------|-----------------------|
--------------------------|----------------------|--0--------------------|
  II       I      I     I     I     I     I        I     I    I    I      
--3--------7---------|-----5-----5-----5-----5--|--5-3--3---------3p-0--|
------------------7--|--------7-----7-----7-----|------------------------|
-----------0---------|--------------------------|-------------0----------|
--2---------------4--|--0--4--0--4--0--4--0--4--|--4-----2---------2-----|
---------------------|--------------------------|------------------------|
---------------------|--------------------------|------------------------|
  I    I     I    I       I     I    I    I         I    I    I    I     
--0--------------------|--0h-2------------0h2p0--|----------------------|
----------0------------|--------3----------------|--3---------3---------|
-------0----------0----|-------------2-----------|-------0---------0----|
-------------2---------|--0---------------0------|----------------------|
--3--------------------|-------------------------|--2---------2---------|
-----------------------|-------------------------|----------------------|
  I    I     I     I        I    I     I    I       I    I    I    I     
--0----------------------|--3-------3--3----2----|--0---------2---------|
-------0h-1p-0-----------|-----------------------|----------------------|
-------0--------0--------|-------0---------------|-------0---------0----|
-------------------2--0--|--2----------2----0----|------------0---------|
--3----------------------|-----------------------|--3-------------------|
-------------------------|--0--------------------|----------------------|
  I    I    I    I       I    I     I     I        I    I     I    I     
----------------------|--0-------------------0--|--3-------3--3----2----|
--3-------------------|-------0h-1p-0-----------|-----------------------|
-------0---------0----|-------0--------0--------|-------0---------------|
------------0---------|-------------------2--0--|--2-------2--2----0----|
--2-------------------|--3----------------------|-----------------------|
----------------------|-------------------------|-----------------------|
  I    I    I     I       I    I    I    I           I     I     I     I      
--0---------2h-3--5----|--------------------------|--0-----2-----3-----5-----|
-----------------------|--3-----------------------|--------------------------|
-------0---------------|-------0---------------0--|---(0)----(0)---(0)---(0)-|
------------0----------|------------0-------0-----|--------0-----2-----4-----|
--3--------------------|--2--------------2--------|--3-----------------------|
-----------------------|--------------------------|--------------------------|
  I    I     I    I       II       I      I     I     I     I     I      
--7-------7--7----5----|--3--------7---------|-----5-----5-----5-----5--|
-----------------------|------------------7--|--------7-----7-----7-----|
-------0-----0---------|-----------0---------|--------------------------|
------------------4----|--2---------------4--|--0--4--0--4--0--4--0--4--|
-----------------------|---------------------|--------------------------|
--0--------------------|---------------------|--------------------------|
  I     I    I    I        I    I     I    I       I     I    I    I       
--5-3--3---------3p-0--|--0--------------------|--0h-2------------0h2p0--|

Продолжаем грести бабос на ботах в Telegram.
Только в этот раз есть вариант автоматизировать это дело, привлекая рефералов. Вы можете заработать если »

------------------------|----------0------------|--------3----------------| -------------0----------|-------0----------0----|-------------2-----------| --4-----2---------2-----|-------------2---------|--0---------------0------| ------------------------|--3--------------------|-------------------------| ------------------------|-----------------------|-------------------------| I I I I I I I I -----------------------|--0----------------------| --3---------0h-1--3----|-------0h-1p-0-----------| -------0---------------|-------0--------0--------| -----------------------|-------------------2--0--| --2--------------------|--3----------------------| -----------------------|-------------------------|... and so on with slite variations... O B O E : I I II II II II I I E||----------------------|--------------------|------------------------| B||----------------------|--------------------|--12--------12----10----| G||--9----------9--------|-----------9--------|------------------------| D||-------12-------------|--9-----------------|------------------------| A||----------------------|--------------------|------------------------| E||----------------------|--------------------|------------------------| I I II I I II II II --------10------------------|------------------------|---------------------| --12----------12------10h12-|-p10----------10--------|-----------10--------| ----------------------------|--------12--------------|--9------------------| ----------------------------|------------------------|---------------------| ----------------------------|------------------------|---------------------| ----------------------------|------------------------|---------------------| I I II I I II II I I --9----------9--------|--10----9----10--------|------------------------| -------12-------------|-----------------------|--12--------------------| ----------------------|-----------------------|------------12----11----| ----------------------|-----------------------|------------------------| ----------------------|-----------------------|------------------------| ----------------------|-----------------------|------------------------| I I I I I I I I II --------------------------|--------------------------|-------------------| --------12----------------|--------------------------|-------------------| --12----------12----11----|--12----11----------------|-------------------| --------------------------|--------------12----12----|--9----------------| --------------------------|--------------------------|-------------------| --------------------------|--------------------------|-------------------| I I I I I I I I I I I I ------------------------|-------------------------|-------------------------| ------------------------|-------------------------|--10---------------------| --12----9----------9----|--------11----9----11----|--------11----9----11----| -------------12---------|--12---------------------|-------------------------| ------------------------|-------------------------|-------------------------| ------------------------|-------------------------|-------------------------| I I I I -------------------------| -------------------------| --9----12----11----12----| -------------------------| -------------------------| -------------------------|... then at 9:52 III I I I I I |--14------------10p-9--|--10----14----10----9----| |-----------------------|-------------------------| |-----------------------|-------------------------| |-----------------------|-------------------------| |-----------------------|-------------------------| |-----------------------|-------------------------| I I II II II I I I I --10----9--------------|----------------------|--10----------------------| -------------10--------|------------10--------|--------12----10----12----| -----------------------|--11------------------|--------------------------| -----------------------|----------------------|--------------------------| -----------------------|----------------------|--------------------------| -----------------------|----------------------|--------------------------| I I I I I I I I I I I I --------------------------|--10----------------------|--------------------------| --10----------------10----|--------10----12----13----|--12----------10----12----| --------11----12----------|--------------------------|--------12----------------| --------------------------|--------------------------|--------------------------| --------------------------|--------------------------|--------------------------| --------------------------|--------------------------|--------------------------|...








О сайтеАккордыХит-парадПоискУроки ФорумыИщу песню
ПрограммыСвежачок-сПодпискаСтатьи
Яндекс.Метрика