Табулатура Mike Oldfield | Tubular Bells Part One (instrumental) гитара табулатуры уроки тексты песен Mike Oldfield текст lyrics песня аккорды песни ноты нота электрогитара струна  
   А Б В Г Д Е Ж З И К Л М Н О П Р С Т У Ф Х Ч Ш Ы Э Ю Я       Разные песни
1-9 A B C D E F G H I J K L M N O P Q R S T U V W Y Z      Все исполнители

    



группа Mike Oldfield, Табулатура песни Tubular Bells Part One (instrumental)

Группа: Mike Oldfield - другие аккорды (207),   об исполнителе (3 статей),   диски (26),   фотографии (18)
Табулатура песни: Tubular Bells Part One (instrumental)
Просмотров: 609
Прислал: squire (cailinsquires@yahoo.ie)




    
"Spanish Guitar and introducing Acoustic Guitar" from Tubular Bells part 1
Mike Oldfield
Well this is my first tab released to the public, and I'm quite surprised
that nobody's alerady done this one. The rythym isn't quite right, but if
you've heard this piece it should be very easy to correct the rythym as you
go along. Enjoy!
David Ronis
(Alnilam)
                                                                      
E||--------------------|----2--5----4----2----|--0----2h4----4-------|
B||--3h5---------------|----------------------|----------------------|
G||--------------------|----------------------|----------------------|
D||--------------------|----------------------|----------------------|
A||--------------------|----------------------|----------------------|
E||--------------------|----------------------|----------------------|
                                                                            
---0/2--4h5----4----2----|--0----2h0-2-----------|------2h0----------4-----|
-------------------------|-----------------------|--0h3----------3---------|
-------------------------|-----------------------|-------------------------|

Продолжаем грести бабос на ботах в Telegram.
Только в этот раз есть вариант автоматизировать это дело, привлекая рефералов. Вы можете заработать если »

-------------------------|-----------------------|-------------------------| -------------------------|-----------------------|-------------------------| -------------------------|-----------------------|-------------------------| ------------2h0--------|----------------4-------|-------------------| --3----3-----------0---|----0-2-3----2-------3--|--3----------------| -----------------------|------------------------|-------------------| -----------------------|------------------------|-------------------| -----------------------|------------------------|-------------------| -----------------------|------------------------|-------------------| -------------------|| --2----------------|| -------------------|| -------------------|| -------------------|| -------------------||

Сертификация упаковки для пищевых продуктов
Помощь в сертификации
i-certificate.ru







О сайтеАккордыХит-парадПоискУроки ФорумыИщу песню
ПрограммыСвежачок-сПодпискаСтатьи
Яндекс.Метрика