Табулатура Песни из кинофильмов | Собака Баскервилей (из К/ф "Шерлок Холмс И Доктор Ватсон")  (2) гитара табулатуры уроки тексты песен Песни из кинофильмов текст lyrics песня аккорды песни ноты нота электрогитара струна  
   А Б В Г Д Е Ж З И К Л М Н О П Р С Т У Ф Х Ч Ш Ы Э Ю Я       Разные песни
1-9 A B C D E F G H I J K L M N O P Q R S T U V W Y Z      Все исполнители

    



группа Песни из кинофильмов, Табулатура песни Собака Баскервилей (из К/ф "Шерлок Холмс И Доктор Ватсон") (2)

Группа: Песни из кинофильмов - другие аккорды (207)
Табулатура песни: Собака Баскервилей (из К/ф "Шерлок Холмс И Доктор Ватсон") (2)
Просмотров: 8641
Подобрал: Тазеев Игорь (cult@freemail.ru)




    
Обожаемая мной и многими ценителями истинной музыки заводная трепещущая душу мелодия.
e---------------------------------------------------------------|
B---------------------------------------------------------------|
G--------------0-0-0--------------------------------------------|
D-----0-0-0-------------3-3-3-2-0-2-3---2-----------------------|
A---0--------0--------0---------------0-------------------------|
E---------------------------------------------------------------|
e---------------------------------------------------------------|
B---------------------------------------------------------------|
G--------------2-2-2----0-0-0-------0---------------------------|
D-----2-2-2-------------------3-2-3-----3-----------------------|
A---0--------0--------0---------------0-------------------------|
E---------------------------------------------------------------|
e---------------------------------------------------------------|
B--------------0-0-0--------------------------------------------|

Продолжаем грести бабос на ботах в Telegram.
Только в этот раз есть вариант автоматизировать это дело, привлекая рефералов. Вы можете заработать если »

G-----------------------0-0-0-------0---------------------------| D-----2-2-2-------------------3-2-3-----3-----------------------| A---0--------0--------0---------------0-------------------------| E---------------------------------------------------------------| e---------------------------------------------------------------| B--------------3-3-3--------------------------------------------| G-----------------------2-2-2-0---0-2---------------------------| D-----2-2-2---------------------3-------3-----------------------| A---0--------0--------0---------------0-------------------------| E---------------------------------------------------------------| А дальше, собственно, это в цикле и играется.








О сайтеАккордыХит-парадПоискУроки ФорумыИщу песню
ПрограммыСвежачок-сПодпискаСтатьи
Яндекс.Метрика