Табулатура Песни из кинофильмов | Секретные Материалы - X-files гитара табулатуры уроки тексты песен Песни из кинофильмов текст lyrics песня аккорды песни ноты нота электрогитара струна  
   А Б В Г Д Е Ж З И К Л М Н О П Р С Т У Ф Х Ч Ш Ы Э Ю Я       Разные песни
1-9 A B C D E F G H I J K L M N O P Q R S T U V W Y Z      Все исполнители

    



группа Песни из кинофильмов, Табулатура песни Секретные Материалы - X-files

Группа: Песни из кинофильмов - другие аккорды (207)
Табулатура песни: Секретные Материалы - X-files
Просмотров: 4485
Подобрал: Тазеев Игорь (cult@freemail.ru)




    
И у этого сериала есть фанаты, а значит, музыка из него популярна!
e-----------5-------------5-----9-7-5-3-5-0---9-7-5-3-5-0-------|
B---0-7-5-7---7---0-7-5-7---7-----------------------------------|
G---------------------------------------------------------------|
D---------------------------------------------------------------|
A---------------------------------------------------------------|
E---------------------------------------------------------------|
e-----------5-------------5-----5-------------------------------|
B---0-7-5-7---7---0-7-5-7---7------7----------------------------|

Продолжаем грести бабос на ботах в Telegram.
Только в этот раз есть вариант автоматизировать это дело, привлекая рефералов. Вы можете заработать если »

G---------------------------------------------------------------| D---------------------------------------------------------------| A---------------------------------------------------------------| E---------------------------------------------------------------| Всё!

Махровые простыни купить в москве
Простыни популярных брендов по отличным ценам. Доставим завтра, выбирайте
dom-son.ru







О сайтеАккордыХит-парадПоискУроки ФорумыИщу песню
ПрограммыСвежачок-сПодпискаСтатьи
Яндекс.Метрика