Табулатура Песни из кинофильмов | James Bond Theme гитара табулатуры уроки тексты песен Песни из кинофильмов текст lyrics песня аккорды песни ноты нота электрогитара струна  
   А Б В Г Д Е Ж З И К Л М Н О П Р С Т У Ф Х Ч Ш Ы Э Ю Я       Разные песни
1-9 A B C D E F G H I J K L M N O P Q R S T U V W Y Z      Все исполнители

    



группа Песни из кинофильмов, Табулатура песни James Bond Theme

Группа: Песни из кинофильмов - другие аккорды (207)
Табулатура песни: James Bond Theme
Просмотров: 2467
Подобрал: Тазеев Игорь (cult@freemail.ru)




    
Одна из моих любимых мелодий! Играется очень быстро! И медиатором
(плектром)...
e---------------------------------------------------------------|
B---------------------------------------------------------------|
G---------------------------------------------------------------|
D---------------------------------------------------------------|
A---3--5-5-5-5--3-3-3---3--7-7-7-7--6-5-5---3--5-5-5-5--3-3-3---|
E---------------------------------------------------------------|
e---------------------------------------------------------------|
B---------------------------------------------------------------|
G---------------------------------------------------------------|
D---------------------------------------------------------------|
A---3--7-7-7-7--6-5-5---3--5-5-5-5--3-3-3---3--7-7-7-7--6-5-5---|
E---------------------------------------------------------------|
e---------------------------------------------------------------|
B---1-0---------------------------------------------------------|
G---------------------------------------------------------------|
D--------5-4-5--------------------------------------------------|
A---------------------------------------------------------------|
E---------------------------------------------------------------|
e---------------------------------------------------------------|
B---------------------------------------------------------------|
G---------------------------------------------------------------|
D---------------------------------------------------------------|

Продолжаем грести бабос на ботах в Telegram.
Только в этот раз есть вариант автоматизировать это дело, привлекая рефералов. Вы можете заработать если »

A---3--5-5-5-5--3-3-3---3--7-7-7-7--6-5-5---3--5-5-5-5--3-3-3---| E---------------------------------------------------------------| e---------------------------------------------------------------| B---------------------------------------------------------------| G---------------------------------------------------------------| D---------------------------------------------------------------| A---3--7-7-7-7--6-5-5---3--5-5-5-5--3-3-3---3--7-7-7-7--6-5-5---| E---------------------------------------------------------------| e---------------------------------------------------------------| B---1-0---------------------------------------------------------| G---------------------------------------------------------------| D--------5-4-5---5-4--8-7--4-3--4-3--5-6---5-4--8-7--4-3--4-3---| A---------------------------------------------------------------| E---------------------------------------------------------------| e---------------------------------------------------------------| B---------------------------------------------------------------| G---------------------------------------------------------------| D---5-6---------------------------------------------------------| A---------------------------------------------------------------| E---------------------------------------------------------------| И так далее...








О сайтеАккордыХит-парадПоискУроки ФорумыИщу песню
ПрограммыСвежачок-сПодпискаСтатьи
Яндекс.Метрика