Табулатура Ария | Кровь за кровь  (2) гитара табулатуры уроки тексты песен Ария текст lyrics песня аккорды песни ноты нота электрогитара струна  
   А Б В Г Д Е Ж З И К Л М Н О П Р С Т У Ф Х Ч Ш Ы Э Ю Я       Разные песни
1-9 A B C D E F G H I J K L M N O P Q R S T U V W Y Z      Все исполнители in english

    



группа Ария, Табулатура песни Кровь за кровь (2)

Продолжаем грести бабос на ботах в Telegram.
Только в этот раз есть вариант автоматизировать это дело, привлекая рефералов. Вы можете заработать если »

Группа: Ария - другие аккорды (629),   о группе (7 статей),   диски (18),   фотографии (92)
Табулатура песни: Кровь за кровь (2)
Просмотров: 2500
Подобрал: Dreik (w6485@vandex.ru)




    
Intro :
|-3----2-------------0---|--2---------------2--|
|-0--------5----3----1---|--3---5---3-------4--|
|-0------------------0---|--2-----------5---4--|
|-2------------------2---|--0---------------4--|
|-2------------------3---|------------------2--|
|-0----------------------|------------------2--|
|-3----2-------3---5--3--0---|--2-3-2-2h3p2-----2--|
|-0--------5-------5-----1---|--3-----------3---4--|
|-0----------------5-----0---|--2---------------4--|
|-2----------------3-----2---|--0---------------4--|
|-2----------------------3---|------------------2--|
|-0--------------------------|------------------2--|

Main riff :
E-------------------------------------|-----------------------------------|
H-------------------------------------|-----------------------------------|
G-------------------------------------|-----------------------------------|
D--7---------8---------7--------------|-----------------------------------|
A-----8--5------8--5------8--5---5----|--5--5-----5--7--8--7--5h7p5-----5-|
E-------------------------------------|--------8---------------------8----|
E-------------------------------------|-----------------------------------|

Продолжаем грести бабос на ботах в Telegram.
Только в этот раз есть вариант автоматизировать это дело, привлекая рефералов. Вы можете заработать если »

H-------------------------------------|-----------------------------------| G-------------------------------------|-----------------------------------| D--7---------8---------7--------------|-----------------------------------| A-----8--5------8--5------8--5---5----|--5--5-----5--7--8--7--5h7p5-------| E-------------------------------------|--------8---------------------8--5-| E-------------------------------------|-----------------------------------| H-------------------------------------|-----------------------------------| G-------------------------------------|-----------------------------------| D--7---------8---------7--------------|-----------------------------------| A-----8--5------8--5------8--5---5----|--5--5-----5--7--8--7--5h7p5--8--5-| E-------------------------------------|--------8--------------------------| E-------------------------------------|-----------------------------------| H-------------------------------------|-----------------------------------| G-------------------------------------|-----------------------------------| D--7---------8---------7--------------|---------------------------------7-| A-----8--5------8--5------8--5---5----|--5--5-----5--7--8--7--5h7p5--8----| E-------------------------------------|--------8--------------------------|

поиск лекарств
список лекарств






О сайтеАккордыХит-парадПоискУроки ФорумыИщу песню
ПрограммыСвежачок-сПодпискаСтатьи
Яндекс.Метрика