Табулатура Ария | Раскачаем этот мир гитара табулатуры уроки тексты песен Ария текст lyrics песня аккорды песни ноты нота электрогитара струна  
   А Б В Г Д Е Ж З И К Л М Н О П Р С Т У Ф Х Ч Ш Ы Э Ю Я       Разные песни
1-9 A B C D E F G H I J K L M N O P Q R S T U V W Y Z      Все исполнители in english

    



группа Ария, Табулатура песни Раскачаем этот мир

Продолжаем грести бабос на ботах в Telegram.
Только в этот раз есть вариант автоматизировать это дело, привлекая рефералов. Вы можете заработать если »

Группа: Ария - другие аккорды (629),   о группе (7 статей),   диски (18),   фотографии (92)
Табулатура песни: Раскачаем этот мир
Просмотров: 2437
Подобрал: Yurock (zima-yuri@list.ru)




    
Ария
 Раскачаем этот мир
Вступление 2 раза
1|-----------------------------------------------------------------------------------------------------------------------------------------------------------------------------------------|
2|-------------------------------------------------------------------------------------------------------------------------------------------------------------------5-------------------------|
3|----5--4---5---4-----------5-------4-----5----7-----5------4-------------------------------5----4-----5------4----------------5-------4------5-----7-------------7-----5-----4--5-|
4|----------------------7-------------------------------------------------7--------------------------------------------------7-------------------------------------------------------------|
5|----------------------------------------------------------------------------------------------------------------------------------------------------------------------------------------------|
6|---------------------------------------------------------------------------------------------------------------------------------------------------------------------------------------------|
1|---------------------------------------------------------------------------------------------------------------------------------------------------------------------------------------------|
2|----5---3---5---3----------5---3-----5----6----5----3---------------------------5------3--------5-----3-------------5-----3-------5----6----8-----6-----5-----3---------------------------------------------------|
3|------------------------5-------------------------------------5----------------------------------------------------5----------------------------------------------------------------------------|
4|---------------------------------------------------------------------------------------------------------------------------------------------------------------------------------------------|
5|---------------------------------------------------------------------------------------------------------------------------------------------------------------------------------------------|
6|---------------------------------------------------------------------------------------------------------------------------------------------------------------------------------------------|
      
Am
Город твой - двуликий зверь
       C
Для тебя он днем откроет дверь
          F                 E
А вот в полночь он объявит тебе
F    G
Ты враг!
Am
Враг парней, что ищут драк
     C
Им плевать, кто трус, а кто смельчак
        F                      E
Город прячет в недрах стаи волков
F   G    Am
Hо есть мы!
    C         D
Раскачаем этот мир
  F              E      Am
Где в разгаре грязный пир

Продолжаем грести бабос на ботах в Telegram.
Только в этот раз есть вариант автоматизировать это дело, привлекая рефералов. Вы можете заработать если »

Дух насилья рвется в дом Hасилье рвется в дом Раскачаем этот мир Или волки или мы! Здесь для слабых места нет Для слабых места нет В темноте глаза горят В них сомненья нет - один азарт Волчья стая свой готовит прыжок Цель есть! Ты - чужак, ты сам не свой В сердце страх засел стальной иглой Ты все понял - здесь бессилен сам бог! Hо есть мы! Am Сначала дразнят, но не бьют F Сначала гонят, но не рвут Dm И ночь с волками заодно E Am А ты бежишь не чуя ног Hо неизбежен этот миг Глухой тупик погасит крик И шансов нет - ты здесь чужой Пророчит смерть звериный вой! Вспыхнул день, и стаи нет А в глазах горит спокойный свет Их ласкают дома сестры и мать Hо лишь Бросит ночь на город мрак Для парней ты снова лютый враг Город прячет в недрах стаи волков Hо есть мы!

найти лекарство
список лекарств






О сайтеАккордыХит-парадПоискУроки ФорумыИщу песню
ПрограммыСвежачок-сПодпискаСтатьи
Яндекс.Метрика