Табулатура Limp Bizkit | Full Nelson  (2) гитара табулатуры уроки тексты песен Limp Bizkit текст lyrics песня аккорды песни ноты нота электрогитара струна  
   А Б В Г Д Е Ж З И К Л М Н О П Р С Т У Ф Х Ч Ш Ы Э Ю Я       Разные песни
1-9 A B C D E F G H I J K L M N O P Q R S T U V W Y Z      Все исполнители

    



группа Limp Bizkit, Табулатура песни Full Nelson (2)

Группа: Limp Bizkit - другие аккорды (11),   диски (5),   фотографии (44)
Табулатура песни: Full Nelson (2)
Просмотров: 1155
Подобрал: Юрий (saxion@xaker.ru)




    
"Full Nelson"
Intro
E----15--14-14------------------15-15--14-14-------------------
B--------------------------------------------------------------
F#---13--12-12---13--0-12-0-----13-13--12-12----13-13--12--0---
F#---------------13--0-12-0---------------------13-13--12--0---
Verse (0:25)
E--------------------------------------------------------------
B--------------------------------------------------------------
F#-------------------------------------------------------------
F#---12--12-12-12--12-12-12--12-12-12--12-12-13-13--12---------
Chorus (0:44)
E--------------------------------------------------------------
B--------------------------------------------------------------
F#---0--0----5--3--4----3--5--3-0----3--5--3-0---0-3-5---------
F#---0--0---------------3--5--3-0----3--5--3-0---0-3-5---------
             ^  ^  ^ 

Продолжаем грести бабос на ботах в Telegram.
Только в этот раз есть вариант автоматизировать это дело, привлекая рефералов. Вы можете заработать если »

harmonics Interlude (2:21) x3 E----------------------|--------------------------------------- B----------------------|--------------------------------------- F#---0--0--0-12--0-----|-----0--0-----0--0--------------------- F#---0--0--0-12--0-----|-----0--0--x--0--0--------------------- P.M. - - - - - - - - - - - - - - - - - - - - - - - - - - - - - Breakdown (2:40) E----------------------|--------------------------------------- B----------------------|--------------------------------------- F#---0--0--0-12--0-----|-----0--0-----0--0--------------------- F#---0--0--0-12--0-----|-----0--0--x--0--0---------------------




Error: Incorrect password!




О сайтеАккордыХит-парадПоискУроки ФорумыИщу песню
ПрограммыСвежачок-сПодпискаСтатьи
Яндекс.Метрика