Табулатура Limp Bizkit | Full Nelson гитара табулатуры уроки тексты песен Limp Bizkit текст lyrics песня аккорды песни ноты нота электрогитара струна  
   А Б В Г Д Е Ж З И К Л М Н О П Р С Т У Ф Х Ч Ш Ы Э Ю Я       Разные песни
1-9 A B C D E F G H I J K L M N O P Q R S T U V W Y Z      Все исполнители

    



группа Limp Bizkit, Табулатура песни Full Nelson

Группа: Limp Bizkit - другие аккорды (11),   диски (5),   фотографии (44)
Табулатура песни: Full Nelson
Просмотров: 997
Подобрал: Юрий (saxion@xaker.ru)




    
Full Nelson
INTRO 
e:-----------------------------------------| 
B:-----------------------------------------| 
G:----------------------------------0------| 
D:---5-4----------5-5-4-------------0------| 
A:--------4-4-4----------4-4-4-4-----------| 
E:--------2-2-2----------2-2-2-2-----------|
CHORUS
e:-----------------------------------------| 
B:-----------------------------------------| 
G:-----------------------------------------| 
D:--------2-4-2-----2--4-2-2-2-------------| 

Продолжаем грести бабос на ботах в Telegram.
Только в этот раз есть вариант автоматизировать это дело, привлекая рефералов. Вы можете заработать если »

A:--4-4---0-2-0--4--0--2-0-0-0--4----------| E:--2-2----------2--------------2----------| BRIDGE "we got the fire to burn" e:-----------------------------------------| B:-----------------------------------------| G:-----------------------------------------| D:-----------------------------------------| A:--5-4-4-4--5-4-4-4--5-4-4-4--5-4-4-4-----| E:--3-2-2-2--3-2-2-2--3-2-2-2--3-2-2-2-----|

Тэн для бойлера аристон 50 литров
ТЭНы для водонагревателей Аристон. Низкие цены
dalten.ru



Error: Incorrect password!




О сайтеАккордыХит-парадПоискУроки ФорумыИщу песню
ПрограммыСвежачок-сПодпискаСтатьи
Яндекс.Метрика