Табулатура Limp Bizkit | Don`t Go Off Wandering гитара табулатуры уроки тексты песен Limp Bizkit текст lyrics песня аккорды песни ноты нота электрогитара струна  
   А Б В Г Д Е Ж З И К Л М Н О П Р С Т У Ф Х Ч Ш Ы Э Ю Я       Разные песни
1-9 A B C D E F G H I J K L M N O P Q R S T U V W Y Z      Все исполнители

    



группа Limp Bizkit, Табулатура песни Don`t Go Off Wandering

Группа: Limp Bizkit - другие аккорды (11),   диски (5),   фотографии (44)
Табулатура песни: Don`t Go Off Wandering
Просмотров: 1260
Подобрал: Юрий (saxion@xaker.ru)




    
"Don't Go Off Wandering" 
Intro (0:13)(Distortion) 
C#------------------------------------------------------------- 
G#------------------------------------------------------------- 
E----9---9---9---------------------9---9---9------------------- 
B-------------------------------------------------------------- 
F#------------------------------------------------------------- 
C#---8---8---8---0-0---0-0-0-------8---8---8---0-0---0-0-0----- 
Verse 1 (0:21)(Clean w/ Delay) 
C#------------------------------------------------------------- 
G#------------------------------------------------------------- 
E--------------------9-------9----7---7--------7---7/9---9--9-- 
B----------9--------------------------------------------------- 
F#---7--------------------------------------------------------- 
C#--------------8---------------------------------------------- 
Chorus 
Gtr 1 (0:52)(Clean w/ Delay) 
C#------------------------------------------------------------- 
G#------------------------------------------------------------- 
E------9--------------------------------7--9--7---7--9------9-- 
B-------------------------------------------------------------- 
F#------------------------------------------------------------- 
C#------------------------------------------------------------- 
Gtr 2 (0:52)(Distortion) 
C#------------------------------------------------------------- 
G#------------------------------------------------------------- 
E----------------------------9--9---9--9--7----7--------------- 
B-----9-9--9--9-10-9--9-9-9------------------------------------ 
F#----7-7--7--7--7-7--7-7-7------------------------------------ 
C#---------------------------8--8---8--8--8----8--------------- 
Verse 2 (1:23)(Distortion) 
C#------------------------------------------------------------- 

Продолжаем грести бабос на ботах в Telegram.
Только в этот раз есть вариант автоматизировать это дело, привлекая рефералов. Вы можете заработать если »

G#------------------------------------------------------------- E-------------13--------------15-------------13-------------15- B-------------------------------------------------------------- F#------------------13---13------------------------13---13----- C#---12---12------------------------12---12-------------------- Bridge (2:02) (2:11) C#-------------------------------|----------------------------- G#-------------------------------|----------------------------- E--------------------------------|----------------------------- B--------------------------------|----------------------------- F#-----------14------13----------|-----------14------13-------- C#----/12-------------------11---|---12-------------------11--- Breakdown C#------------------------------------------------------------- G#------------------------------------------------------------- E-------------------------------------------------------------- B-------------------------------------------------------------- F#--------------14-----------13-----------17-----------16------ C#-----12-12-12-----11-11-11-----15-15-15-----14-14-14--------- Breakdown 2 C#------------------------------------------------------------- G#------------------------------------------------------------- E-------------------------------------------------------------- B-------------------------------------------------------------- F#-------------14----------------------------17---------------- C#----12-12-12------0-0--0-0-0------15-15-15-----0-15--0-0-0--- * Harmonic




Error: Incorrect password!




О сайтеАккордыХит-парадПоискУроки ФорумыИщу песню
ПрограммыСвежачок-сПодпискаСтатьи
Яндекс.Метрика