Табулатура Limp Bizkit | Counterfeit гитара табулатуры уроки тексты песен Limp Bizkit текст lyrics песня аккорды песни ноты нота электрогитара струна  
   А Б В Г Д Е Ж З И К Л М Н О П Р С Т У Ф Х Ч Ш Ы Э Ю Я       Разные песни
1-9 A B C D E F G H I J K L M N O P Q R S T U V W Y Z      Все исполнители

    



группа Limp Bizkit, Табулатура песни Counterfeit

Группа: Limp Bizkit - другие аккорды (11),   диски (5),   фотографии (44)
Табулатура песни: Counterfeit
Просмотров: 1198
Подобрал: Юрий (saxion@xaker.ru)




    
"Counterfeit" 
Intro 
C#------------------------------------------------------------- 
G#------------------------------------------------------------- 
E-------------------------------------------------------------- 
B--------9---9----------9-6---6-----9-9------------------------ 
F#---8-7-------8-7---7----------8-7-----8-7-------------------- 
C#------------------------------------------------------------- 
(Delay and slight P.M.) 
Chorus 
C#------------------------------------------------------------- 
G#------------------------------------------------------------- 
E-------------------------------------------------------------- 
B---3--2--------3--2---------------3--2--------3--2------------ 
F#--3--2--------3--2---------------3--2--------3--2------------ 
C#--1--0--3--3--1--0---0-3--4--4---1--0--3--3--1--0--5-5-4-3-2- 
          H  H           H  H  H         H  H        H H H H H 
Verse (1:15 and 2:05) 
C#------------------------------------------------------------- 
G#------------------------------------------------------------- 
E---9-10--0--0-0--0---4-2-4-5-2---9-10--0--0-0--0--0-14---0-14- 
B---------0--0-0--0---------------------0--0-0--0--0------0---- 
F#--7-8---0--0-0--0---2-0-2-3-0---7-8---0--0-0--0--0-12---0-12- 
C#------------------------------------------------------------- 
(Hammer-on the chords with left hand while flicking pickup switch) 
Interlude (2:45) 
C#------------------------------------------------------------- 
G#------------------------------------------------------------- 
E-------------------------------------------------------------- 
B-------------------------------------------------------------- 
F#------------------------------------------------------------- 
C#--3~~~~~~~~~~------------------------------------------------ 
    H 
Bridge (Bass Guitar) (2:52) 
C#------------------------------------------------------------- 
G#------------------------------------------------------------- 
E-------------------------------------------------------------- 
B--------7---7-------5----------------------------------------- 
F#-----7---7---7---5---5-5/7----------------------------------- 
C#---5-----------3-------3/5----------------------------------- 
Bridge 2 (3:10) 
C#------------------------------------------------------------- 
G#------------------------------------------------------------- 
E-------------------------------------------------------------- 

Продолжаем грести бабос на ботах в Telegram.
Только в этот раз есть вариант автоматизировать это дело, привлекая рефералов. Вы можете заработать если »

B-------------------------------------------------------------- F#---7-5------------------------------7-5-------------------7b- C#-0-----0-5-7---0-3--0-0--2h3-2----0-----0-5-7--0--3--0-0----- P.M - - - - - - - - - - - - - - - - - - - - - - - - - - - - - Midtro (3:28) C#------------------------------------------------------------- G#------------------------------------------------------------- E-------------------------------------------------------------- B-------------------------------------------------------------- F#---7-5------------------------------7-5-------------------7b- C#-0-----0-5-7---0-3--0-0--2h3-2----0-----0-5-7-0--3--0-0------ Verse 4 (3:38) C#------------------------------------------------------------- G#------------------------------------------------------------- E-------------------------------------------------------------- B-------------------------------------------------------------- F#---7p5-----------------------------7p5-------------------7b-- C#-0-----0-5h7--0-3--0-0--2h3-2~~--0-----0-5h7-0--3--0-0---0--- P.M. - - - - - - - - - - - - - - - - - - - - - - - - - - - - Outro (3:47) C#------------------------------------------------------------- G#------------------------------------------------------------- E-------------------------------------------------------------- B-------------------------------------------------------------- F#---7p5-----------------------------7p5-------------------7b-- C#-0-----0-5h7--0-3--0-0--2h3-2~~--0-----0-5h7-0--3--0-0---0--- Outro 2 (4:07) C#------------------------------------------------------------- G#------------------------------------------------------------- E-------------------------------------------------------------- B----97-----------------------------97-------------------9b-- F#---75---7/9----5-------4/5-4------75---7/9----5--------7b-- C#-0-----0-5/7--0-3-0-0-0-2/3-2----0-----0-5/7-0--3--0-0-0----- P.M. - - - - - - - - - - - End (4:26) C#---------- G#---------- E----------- B---9b--9--- F#--7b------ C#------0--- Hold - - -




Error: Incorrect password!




О сайтеАккордыХит-парадПоискУроки ФорумыИщу песню
ПрограммыСвежачок-сПодпискаСтатьи
Яндекс.Метрика