Табулатура Limp Bizkit | Clunk гитара табулатуры уроки тексты песен Limp Bizkit текст lyrics песня аккорды песни ноты нота электрогитара струна  
   А Б В Г Д Е Ж З И К Л М Н О П Р С Т У Ф Х Ч Ш Ы Э Ю Я       Разные песни
1-9 A B C D E F G H I J K L M N O P Q R S T U V W Y Z      Все исполнители

    



группа Limp Bizkit, Табулатура песни Clunk

Группа: Limp Bizkit - другие аккорды (11),   диски (5),   фотографии (44)
Табулатура песни: Clunk
Просмотров: 823
Подобрал: Юрий (saxion@xaker.ru)




    
"Clunk" 
Intro (0:06) 
C#------------------------------------------------------------- 
G#------------------------------------------------------------- 
E--------------------------------------------------------9----- 
B--------------------------------------------------------7----- 
F#----2-------3---5--4---3----2-----3---5--3----------5-------- 
C#----0-------1---3--2---1----0-----1---3--1------------------- 
Verse (0:21) 
C#------------------------------------------------------------- 
G#------------------------------------------------------------- 
E-------------------------------------------------------------- 
B-------------------------------------------------------------- 
F#----2---3---0---2---3----2--3--0--2--3----------------------- 
C#----2---3---0---2---3----2--3--0--2--3---0----0---0--0--0--0- 
P.M.                                       - - - - - - - - - - 
Chorus (0:38) 
C#------------------------------------------------------------- 
G#------------------------------------------------------------- 
E-----9--8b---------------------------------------------------- 
B-------------------------------------------------------------- 
F#----7--6b---------------------------------------------------- 
C#-------------------0--2--3--0--2--3--0--0--2--3--0--3--2--0-- 
Chorus 2 (0:52) 
C#------------------------------------------------------------- 
G#------------------------------------------------------------- 

Продолжаем грести бабос на ботах в Telegram.
Только в этот раз есть вариант автоматизировать это дело, привлекая рефералов. Вы можете заработать если »

E-----9--8----------------------------------------------------- B-------------------------------------------------------------- F#----7--6-----------1------3----3-----2----1---------3---2---- C#-------------------1------3----3-----2----1----0----3---2---- Bridge (1:51)(w/ Vibrato effect) C#----5--7--0--8--7--0--10--0--8--0--7--8--7--5--7--5--7--0--8- G#----7--5--0--6--5--0---8--0--6--0--5--6--5--3--5--3--5--0--6- E-------------------------------------------------------------- B-------------------------------------------------------------- F#------------------------------------------------------------- C#------------------------------------------------------------- C#---7--0--10--0--8--0--7--8--7--5--7-------------------------- G#---5--0---8--0--6--0--5--6--5--3--5-------------------------- E-------------------------------------------------------------- B-------------------------------------------------------------- F#------------------------------------------------------------- C#------------------------------------------------------------- Breakdown (2:18) C#------------------------------------------------------------- G#------------------------------------------------------------- E-------------------------------------------------------------- B-------------------------------------------------------------- F#------------------------------------------------------------- C#-------1---0---0---0---1p0---1---0---0---0---1




Error: Incorrect password!




О сайтеАккордыХит-парадПоискУроки ФорумыИщу песню
ПрограммыСвежачок-сПодпискаСтатьи
Яндекс.Метрика