Аккорды Manowar | Sword In The Wind гитара табулатуры уроки тексты песен Manowar текст lyrics песня аккорды песни ноты нота электрогитара струна  
   А Б В Г Д Е Ж З И К Л М Н О П Р С Т У Ф Х Ч Ш Ы Э Ю Я       Разные песни
1-9 A B C D E F G H I J K L M N O P Q R S T U V W Y Z      Все исполнители in english

    



группа Manowar, Аккорды песни Sword In The Wind

Продолжаем грести бабос на ботах в Telegram.
Только в этот раз есть вариант автоматизировать это дело, привлекая рефералов. Вы можете заработать если »

Группа: Manowar - другие аккорды (25),   о группе (16 статей),   диски (15),   фотографии (37)
Аккорды песни: Sword In The Wind
Просмотров: 1872
Подобрал: DRT-13 (ruduwoodoo@ukr.net)




    
Вступление
Em
e-----0-------0-------0-------0-----
b------0-------0-------0-------0----
g----0--0----0--0----0--0----0--0---
d---2----2--2----2--2----2--2----2--
a--2-------2-------2-------2--------
e-0-------0-------0-------0---------
I surrender my soul Odin hear my call
  Em      C       H       Em  
------0-------0-------2-------0-----
---------------------4---------0----
-----0--------------4--------0--0---
----2------2-------4--------2----2--
---2------3-------2--------2--------
--0-----------------------0---------
One day I'll sit beside your throne In Valhalla's great hall
  Em      C       H       Em  
------0-------0-------2-------0-----
---------------------4---------0----
-----0--------------4--------0--0---
----2------2-------4--------2----2--
---2------3-------2--------2--------
--0-----------------------0---------
Like so many before me I'll die with honor and pride
  Em      C       H       Em  
------0-------0-------2-------0-----
---------------------4---------0----
-----0--------------4--------0--0---
----2------2-------4--------2----2--
---2------3-------2--------2--------
--0-----------------------0---------
The right of the warrior Forever to fight by your side
  Em      C       H       Em  
------0-------0-------2-------0-----
---------------------4---------0----
-----0--------------4--------0--0---
----2------2-------4--------2----2--
---2------3-------2--------2--------
--0-----------------------0---------

Send a sign, raise the sail Wave a last goodbye
   C       G       H       Em
-------0-------3-------2-------0-----
------1-1-------------4-4-------0----
-----0---0----0--0---4---4----0--0---
----2-----2--0----0-4-----4--2----2--
---3--------2------2--------2--------
-----------3---------------0---------
Destiny is calling Immortality be mine
   C        C      D         D
-------0-------0-------2---2-----2----
------1-1-------------3-3---3---3-----
-----0---0----0--0---2---3-----2------
----2-----2--2----0-0---------0-------
---3--------3-------------------------
--------------------------------------
  Дальше таким же перебором:
Em                 C              H             Em        
Call the witch to cast the runes Weave a magic spell
Em              C              H                   Em 
We who die in battle are born Not for heaven, not for hell
C              G         H                 Em
We are sons of Odin, The fire we burn inside
C                   A                 D(H)    
Is the legacy of warrior kings, Who reign above in the sky
Припев:
I will lead the charge
   C          D
-------0----------2----
------1-1-------3--3---
-----0---0-----2-2--2--
----2-----2---0------0-
---3-------------------
-----------------------
My sword into the wind
G      D       Em
----3-----2-------0-----
---------3---------0----
---0----2--------0--0---
--0----0--------2----2--
---------------2--------
3-------------0---------
Sons of Odin fight
   C          D
-------0----------2----
------1-1-------3--3---
-----0---0-----2-2--2--
----2-----2---0------0-
---3-------------------
-----------------------
To die and live again
G      D       Em

Продолжаем грести бабос на ботах в Telegram.
Только в этот раз есть вариант автоматизировать это дело, привлекая рефералов. Вы можете заработать если »

----3-----2-------0----- ---------3---------0---- ---0----2--------0--0--- --0----0--------2----2-- ---------------2-------- 3-------------0--------- Viking ships cross the sea C D -------0----------2---- ------1-1-------3--3--- -----0---0-----2-2--2-- ----2-----2---0------0- ---3------------------- ----------------------- In cold wind and rain G D A ----3-----2--------0----- ---------3--------2-0---- ---0----2--------2---0--- --0----0--------2-----2-- ---------------0--------- 3------------------------ Sail into the black of night C -------0--------0---- ------1-1------1-1--- -----0---0----0---0-- ----2-----2--2-----2- ---3--------3-------- --------------------- Magic stars our guiding light D H -------2--------2------- -----3--3------4-------- ----2-2--2----4--------- ---0------0--4---------- ------------2----------- ------------------------ Em C Today the blood of battle H Em Upon my weapons will never dry Em C Many I'll send into the ground H Em Laughing as they die C G We are sons of Odin H Em The fire we burn inside C C(A) Is the legacy of warrior kings D H(D) Who reign above in the sky C D I will lead the charge G D Em My sword into the wind C D Sons of Odin fight G D Em To die and live again C D Viking ships cross the sea G A In cold wind and rain C Sail into the black of night D H(D) Magic stars our guiding light C D Place my body on a ship G D Em And burn it on the sea C D Let my spirit rise G D Em Valkiries carry me C D Take me to Valhalla G A Where my brothers wait for me C D Fires burning to the sky H My spirit will never die

искать в аптеке
список лекарств






О сайтеАккордыХит-парадПоискУроки ФорумыИщу песню
ПрограммыСвежачок-сПодпискаСтатьи
Яндекс.Метрика