Табулатура Limp Bizkit | Boiler гитара табулатуры уроки тексты песен Limp Bizkit текст lyrics песня аккорды песни ноты нота электрогитара струна  
   А Б В Г Д Е Ж З И К Л М Н О П Р С Т У Ф Х Ч Ш Ы Э Ю Я       Разные песни
1-9 A B C D E F G H I J K L M N O P Q R S T U V W Y Z      Все исполнители

    



группа Limp Bizkit, Табулатура песни Boiler

Группа: Limp Bizkit - другие аккорды (11),   диски (5),   фотографии (44)
Табулатура песни: Boiler
Просмотров: 1222
Подобрал: Юрий (saxion@xaker.ru)




    
"Boiler"
Intro
C#-------------------------------------------------------------
G#-------------------------------------------------------------
E--------------------------------------------------------------
B--------------------------------------------------------------
F#-------------------------------------------------------------
C#----7----------8----------10----------------------0----------
Chorus                                                      x2
C#-------------------------------------------------------------
G#-------------------------------------------------------------
E-------9-9--9--9-9-----9-9-9-9------9b-9b---------------------
B----9--9-9--9--9-9--9--9-9-9-9---9----------------------------
F#---7--7-7--7--7-7--7--7-7-7-7---7--7b-7b---------------------
C#---0--0-0--0--0-0--0--0-0-0-0---0----------------------------
C#-------------------------------------------------------------
G#-------------------------------------------------------------
E-------9-9--9--9-9-----9-9-9-9------9b-9b---------------------
B----9--9-9--9--9-9--9--9-9-9-9---9----------------------------
F#---7--7-7--7--7-7--7--7-7-7-7---7--7b-7b---------------------
C#---8--8-8--8--8-8--8--8-8-8-8---8----------------------------

C#-------------------------------------------------------------
G#-------------------------------------------------------------
E-------9-9--9--9-9-----9-9-9-9------9b-9b---------------------
B----7--7-7--7--7-7--7--7-7-7-7---7----------------------------
F#---5--5-5--5--5-5--5--5-5-5-5---5--7b-7b---------------------
C#-------------------------------------------------------------
 
Verse (w/ Delay)
C#----------(12)-----------------------------------------------
G#----------(12)--------(12)-----------------------------------

Продолжаем грести бабос на ботах в Telegram.
Только в этот раз есть вариант автоматизировать это дело, привлекая рефералов. Вы можете заработать если »

E-------9-9---------9-9-(12)------9-9-(12)------9-9---(12)----- B--------------5-5--------------------(12)------------(12)----- F#--7-7------------------------------------5-5----------------- C#---------------------------8-8------------------------------- Bridge C#------------------------------------------------------------- G#------------------------------------------------------------- E-------------------------------------------------------------- B----2~~~~----------------------------------------------------- F#---2~~~~--------------------------------------0-------------- C#---0~~~~----------------------------------------------------- ^ Hold till feedback. Interlude C#------------------------------------------------------------- G#------------------------------------------------------------- E----9~~~~--9---------9~~~~-9--------5--------7---------------- B-------------------------------------------------------------- F#---7~~~~--7---------7~~~~-7--------3--------5---------------- C#------------------------------------------------------------- ^ ^ Shake whammy bar back and forth slightly Outro (Clean w/ Delay & Reverb) C#--(7)------(5)----------------------------------------------- G#--(7)--(5)--------(7)-(7)------(7)------------(7)-(7)-------- E---(7)-----------------(7)-(7)----(7)----------(7)-(7)-------- B---(7)---------------------(7)------(7)--------------(7)-(7)-- F#--(7)------------------------(7)-----(7)------------(7)-(7)-- C#--(7)--------------------------------------------------------




Error: Incorrect password!




О сайтеАккордыХит-парадПоискУроки ФорумыИщу песню
ПрограммыСвежачок-сПодпискаСтатьи
Яндекс.Метрика