Табулатура Limp Bizkit | 9 Teen 90 Nine гитара табулатуры уроки тексты песен Limp Bizkit текст lyrics песня аккорды песни ноты нота электрогитара струна  
   А Б В Г Д Е Ж З И К Л М Н О П Р С Т У Ф Х Ч Ш Ы Э Ю Я       Разные песни
1-9 A B C D E F G H I J K L M N O P Q R S T U V W Y Z      Все исполнители

    



группа Limp Bizkit, Табулатура песни 9 Teen 90 Nine

Группа: Limp Bizkit - другие аккорды (11),   диски (5),   фотографии (44)
Табулатура песни: 9 Teen 90 Nine
Просмотров: 1739
Подобрал: Юрий (saxion@xaker.ru)




    
"9 Teen 90 Nine"
Intro (0:00) 
C#------------------------------------------------------------- 
G#------------------------------------------------------------- 
E-------------------------------------------------------------- 
B-------------------------------------------------------------- 
F#------------------------------------------------------------- 
C#----0-0-0-0-0-0--0--0-0--0-0-----0-0-0-0-0-0--0--0-0--0-0---- 
      * Hit the notes with your thumb 
Chorus (0:10) 
C#-----------------------------------|------------------------- 
G#-----------------------------------|------------------------- 
E------------------------------------|------------------------- 
B------------------------------------|-------------------3b---- 
F#-------------------------------1---|-------------------3b---- 
C#---0--0---3-2-1-0---0--0---3-2-----|---0--0--3-2-0-1---1b---- 
Verse (0:30)(Clean w/ Delay) 
C#------------------------------------------------------------- 
G#------------------------------------------------------------- 
E---------8------------------------6--------------------------- 
B---------7------------------------7--------------------------- 
F#------------------------------------------------------------- 
C#------------------------------------------------------------- 
Interlude (2:20) 
C#------------------------------------------------------------- 

Продолжаем грести бабос на ботах в Telegram.
Только в этот раз есть вариант автоматизировать это дело, привлекая рефералов. Вы можете заработать если »

G#------------------------------------------------------------- E-------------------------------------------------------------- B------2--2--2------------------------------------------------- F#-----2--2--2------------------------------------------------- C#-----0--0--0------------------------------------------------- Bridge (3:07) C#------------------------------------------------------------- G#------------------------------------------------------------- E------9--9--9--9-10-10--9------------------------------------- B------6--6--6--6--7--7--6------------------------------------- F#-----7--7--7--7--8--8--7----------8-----------8-------------- C#-----0--0--0--0--0--0--0----0--0--6-----0--0--6-------------- P.M. ---- ---- Bridge 2 (3:16) C#------------------------------------------------------------- G#------------------------------------------------------------- E-------------------------------------------------------------- B---------2--------3--------2-----------2--2------2---2---2---- F#--------2--------3--------2-----------2--2------2---2---2---- C#-----0--0-----1--1-----0--0-----------0--0------0---0-------- P.M. - - - -----




Error: Incorrect password!




О сайтеАккордыХит-парадПоискУроки ФорумыИщу песню
ПрограммыСвежачок-сПодпискаСтатьи
Яндекс.Метрика