Табулатура Ногу Свело | Наши Юные Смешные Голоса  (6) гитара табулатуры уроки тексты песен Ногу Свело текст lyrics песня аккорды песни ноты нота электрогитара струна  
   А Б В Г Д Е Ж З И К Л М Н О П Р С Т У Ф Х Ч Ш Ы Э Ю Я       Разные песни
1-9 A B C D E F G H I J K L M N O P Q R S T U V W Y Z      Все исполнители

    



группа Ногу Свело, Табулатура песни Наши Юные Смешные Голоса (6)

Группа: Ногу Свело - другие аккорды (22),   диски (2),   фотографии (1)
Табулатура песни: Наши Юные Смешные Голоса (6)
Просмотров: 1789
Прислал: ALIEN




    
Я подобрал вступление и несколько соляков.
ВСТУПЛЕНИЕ.ИГРАЕТСЯ 2 РАЗА.
    Am          C          G            Em        Am          C           G
 1|---0---------------------------------------------0---------------------------------------------
 2|-----3-1-0-----------------------------------------3-1-0---------------------------------------
 3|-----------2---0-----------------------------------------2---0-------------0-----0-----0-----0-
 4|-----------------3-2-0-----0-----------------------------------3-2-0-----0---0-----0-----0-----
 5|-0-----------3---------3-----3-2-0-----3-2-0---0-----------3---------3---------2-----2-----2---
 6|-------------------------3---------3-0-------4-------------------------3-----------------------
CОЛО,КОТОРОЕ ИДЕТ ПОСЛЕ 1-ОГО КУПЛЕТА.
    Am
 1|-----0-------------------0-----------|
 2|-------3-1-3-1-0-----1-----3-1-3-1-0-|
 3|---2---------------0---2-------------|
 4|-2---------------2-------------------|
 5|-------------------------------------|
 6|-------------------------------------|

СОЛО,КОТОРОЕ ИДЕТ ПОСЛЕ СЛОВ \"...ночной светильник...\" В 3-ЕМ КУПЛЕТЕ.
 1|-(12)-(10)-8-(10)-8-7-----8-----(12)-(10)-8-(10)-8-7p8-7p8-7p8-7p8-7p8-7p8-5-|
 2|------------------------8---(10)---------------------------------------------|
 3|----------------------9------------------------------------------------------|
 4|-----------------------------------------------------------------------------|
 5|-----------------------------------------------------------------------------|
 6|-----------------------------------------------------------------------------|
 ПОМЕТКА.
 p-SLIDE 
НУ И САМА ПЕСНЯ С АККОРДАМИ.
              I
Am        C              G   Em
В комнате искусственного лета
Am        C              G
Мы лежим на кафельном столе
И в лучах искусственного света

Продолжаем грести бабос на ботах в Telegram.
Только в этот раз есть вариант автоматизировать это дело, привлекая рефералов. Вы можете заработать если »

Раны застывают как желе Припев Am C Люди больше не услышат G Em Наши юные, смешные голоса Am C G Теперь их слышат только небеса Люди никогда не вспомнят Наши звонкие, смешные имена Теперь их помнит только тишина II Злой маньяк гуляет на свободе Чтобы жертву новую найти Он решает что сегодня в моде У странников последнего пути Припев III Ляжем как продукты в холодильник И обнявшись нежно там уснем На прощание нам больной светильник Улыбнется кварцевым огнем Припев ПОМЕТКА. Аккорды в припеве играются на барэ (желательно).








О сайтеАккордыХит-парадПоискУроки ФорумыИщу песню
ПрограммыСвежачок-сПодпискаСтатьи
Яндекс.Метрика