Табулатура Песни из кинофильмов | Соло Из "Крёсного Отца" гитара табулатуры уроки тексты песен Песни из кинофильмов текст lyrics песня аккорды песни ноты нота электрогитара струна  
   А Б В Г Д Е Ж З И К Л М Н О П Р С Т У Ф Х Ч Ш Ы Э Ю Я       Разные песни
1-9 A B C D E F G H I J K L M N O P Q R S T U V W Y Z      Все исполнители

    



группа Песни из кинофильмов, Табулатура песни Соло Из "Крёсного Отца"

Группа: Песни из кинофильмов - другие аккорды (207)
Табулатура песни: Соло Из "Крёсного Отца"
Просмотров: 3802
Прислал: Dimitriux (Dimitiux@yendex.ru)




    
Соло из фильма \"Крёстный отец\"
|-0-5-8-7-5-8-|--5-7-5-1-3-0-|-0-5-8-7-5-8--|--5-7-5-------|
|-------------|--------------|--------------|--------5-4-3-|
|-------------|--------------|--------------|--------------|
|-------------|--------------|--------------|--------------|
|-------------|--------------|--------------|--------------|
|-------------|--------------|--------------|--------------|
|---1--4\\7~---|----1-4\\5~----|------3-1-0---|-3-2-1-0-4-5--|
|-3-----------|--3-----------|----1---------|--------------|
|-------------|--------------|-2------------|--------------|
|-------------|--------------|--------------|--------------|
|-------------|--------------|--------------|--------------|

Продолжаем грести бабос на ботах в Telegram.
Только в этот раз есть вариант автоматизировать это дело, привлекая рефералов. Вы можете заработать если »

|-------------|--------------|--------------|--------------| |-----------5-|-1-0--0-3-0---|---0-1--------|--------------| |---------0---|------------3~|-3-----4-5~---|--------------| |-2-2-1-0-----|--------------|--------------|--------------| |-------------|--------------|--------------|--------------| |-------------|--------------|--------------|--------------| |-------------|--------------|--------------|--------------|








О сайтеАккордыХит-парадПоискУроки ФорумыИщу песню
ПрограммыСвежачок-сПодпискаСтатьи
Яндекс.Метрика