Табулатура Песни из кинофильмов | Поющие Гитары гитара табулатуры уроки тексты песен Песни из кинофильмов текст lyrics песня аккорды песни ноты нота электрогитара струна  
   А Б В Г Д Е Ж З И К Л М Н О П Р С Т У Ф Х Ч Ш Ы Э Ю Я       Разные песни
1-9 A B C D E F G H I J K L M N O P Q R S T U V W Y Z      Все исполнители

    



группа Песни из кинофильмов, Табулатура песни Поющие Гитары

Группа: Песни из кинофильмов - другие аккорды (207)
Табулатура песни: Поющие Гитары
Просмотров: 2098
Подобрал: garik (garik999@mail.ru)




    
поющие гитары
E-----1-0-1---|---1-0-1-0---|-------0-----|-------------|
B----1--------|-0-----------|-----1---1---|-----3-2-3-2-|
G---2---------|1------------|---0---------|---2---------|
D-------------|-------------|-------------|-0-----------|
A-------------|-------------|-------------|-------------|
E-------------|-------------|-------------|-------------|
 
E-------------|-------------|---------------------------|
B-----0-------|----3-1-3-1--|---1--1-0-1-0-1-0-1-0-1-0--|  {и сначала...

Продолжаем грести бабос на ботах в Telegram.
Только в этот раз есть вариант автоматизировать это дело, привлекая рефералов. Вы можете заработать если »

G---2--2------|-------------|---------------------------| D--0----------|--2----------|---------------------------| A-------------|-0-----------|---------------------------| E-------------|-------------|---------------------------| Всё то же самое, но только в конце |--------------1--------| | -1-0-1-0---2--------| С вопросами и пожеланиями обращаться по адресу: garik999@mail.ru








О сайтеАккордыХит-парадПоискУроки ФорумыИщу песню
ПрограммыСвежачок-сПодпискаСтатьи
Яндекс.Метрика