Табулатура Smash Mouth | All Star гитара табулатуры уроки тексты песен Smash Mouth текст lyrics песня аккорды песни ноты нота электрогитара струна  
   А Б В Г Д Е Ж З И К Л М Н О П Р С Т У Ф Х Ч Ш Ы Э Ю Я       Разные песни
1-9 A B C D E F G H I J K L M N O P Q R S T U V W Y Z      Все исполнители

    



группа Smash Mouth, Табулатура песни All Star

Группа: Smash Mouth - другие аккорды (15),   о группе (1 статей),   диски (4),   фотографии (5)
Табулатура песни: All Star
Просмотров: 2088
Подобрал: Angel (genieinabott1e@yahoo.com)




    
Smash Mouth - All Star (Табы для гитары)

   |-----------3-----------5---5---------5------------3---3-|
   |-----------3-----------7---7---------5------------5---5-|
   |-----------4-----------7---7---------5------------5---5-|
   |--------------------------------------------------------|
   |--5-----------4--5-----------7-----------2--3-----------|
   |------3----------------------------5--------------------|


   Припев:

   |-------------------------------------------------------------|
   |*------------------------------------------------------------|
   |-------------------------------------6-6-6-6-6-6-------------|
   |-------------------5-5-x-x-x-x-x--5-5-5-5-5-5--5-5-x-x-x-x---|
   |*--5-5-5-5-5-5--3-3-x-x-x-x-x-- 4-4-4-4-4-4--3-3-x-x-x-x-----|
   |---3-3-3-3-3-3-----------------------------------------------|

   =>   
 
   |-------------------------------------------------------------|

Продолжаем грести бабос на ботах в Telegram.
Только в этот раз есть вариант автоматизировать это дело, привлекая рефералов. Вы можете заработать если »

|------------------------------------------------------------*| |-------------------------------------------------------------| |----------------------------------5-let ring-----------------| |--5-5-5-5-5-5--3-3-3-3-3-3--3-------------------------------*| |--3-3-3-3-3-3--1-1-1-1-1-1-----------------------------------| Проигрыш: |--9-----6----4--2-----6--7--6-------4---2---------2-------------------| |--------------------------------------------------4-------------------| |----------------------------------------------------------------------| |----------------------------------------------------------------------| |----------------------------------------------------------------------| |----------------------------------------------------------------------| В конце просто проигрывайте эти аккорды: G D Am C








О сайтеАккордыХит-парадПоискУроки ФорумыИщу песню
ПрограммыСвежачок-сПодпискаСтатьи
Яндекс.Метрика