Аккорды Radiohead | My Iron Lung гитара табулатуры уроки тексты песен Radiohead текст lyrics песня аккорды песни ноты нота электрогитара струна  
   А Б В Г Д Е Ж З И К Л М Н О П Р С Т У Ф Х Ч Ш Ы Э Ю Я       Разные песни
1-9 A B C D E F G H I J K L M N O P Q R S T U V W Y Z      Все исполнители in english

    



группа Radiohead, Аккорды песни My Iron Lung

Работа в Европе для граждан РФ, Украины, СНГ

  • минимальная зарплата $500.
  • виза и контракт на полгода, возможно продление
  • проживание оплачивает работодатель
  • нужен только загранпаспорт
  • оформление 190 €
  • данное предложение - отличная возможность эмигрировать в Европу и закрепиться здесь навсегда.

  • Мы свяжемся с Вами по WhatsApp или Viber и ответим на любые вопросы.
    на нашем сайте можно почитать подробнее »

    Группа: Radiohead - другие аккорды (189),   о группе (6 статей),   диски (9),   фотографии (134)
    Аккорды песни: My Iron Lung
    Просмотров: 1038
    Подобрал: Badtimes (indiespace@akkords.ru)




        
    
                                                           
    E||--------------------------|------------------------|
    B||--------3h-0--------0-----|--------1---------------|
    G||-----0-----------0-----0--|-----0--------2r-----0--|
    D||--------------3-----------|--1--------1------------|
    A||--------------------------|------------------------|
    E||--3-----------------------|------------------------|
    
                                                          
    --------------------------|--------------------------|
    --------3h-0--------0-----|--------1-----------4-----|
    -----0-----------0-----0--|-----2-----2/----5-----5--|
    --------------3-----------|--1-----------4-----------|
    --------------------------|--------------------------|
    --3-----------------------|--------------------------|
    
                                                                                   
    --------------------------|------------------------|--------------------------|
    --------3h-0--------0-----|--------1--3--3r---1----|--------3h-0--------0-----|
    -----0-----------0-----0--|-----0------------------|-----0-----------0-----0--|
    --------------3-----------|--1---------------------|--------------3-----------|
    --------------------------|------------------------|--------------------------|
    --3-----------------------|------------------------|--3-----------------------|
    
                                                                   
    ---------------------3--|------------------|------------------|
    --------1------------3--|------------------|------------------|
    -----0--------2r-----0--|------------------|------------------|
    --1--------1------------|------------------|------------------|
    ------------------------|------------------|------------------|
    ------------------------|------------------|------------------|
    
                                                                   
    --3----------------|------------------|-----------------------|
    --3----------------|------------------|-----------0-----------|
    --0----------------|------------------|--------0--------------|
    -------------------|------------------|-----0--------------0--|
    -------------------|------------------|-----------------------|
    -------------------|------------------|--3--------------------|
    
                                                                                 
    ------------------------|------------------------|--------------------------|
    -----------1------------|-----------3------------|--4h-3--4h-3--4h-3--4h-3--|
    --------0-------0-------|--------0-----0------0--|--------------------------|
    ---------------------0--|-----5--------0---------|--------------------------|
    -----6------------------|------------------------|--------------------------|
    --3---------------------|--3---------------------|--------------------------|
    
           G                Cm/A   Cm/5-/G                          
    ---------------------|--------------------|--------------------|
    -------3------3------|--1------4----------|------3------3------|
    -------4------4------|--0------5----------|------4------4------|
    -------5------3------|--1------4----------|------5------3------|
    ---------------------|--0------3----------|--------------------|
    --3------------------|---------3----------|--------------------|
    
                                                                          
    --------------------|-----------------------|------------------------|
    --1------4----------|-----------0-----------|-----------1------------|
    --0------5----------|--------0--------------|--------0-------0-------|
    --1------4----------|-----0--------------0--|---------------------0--|
    --0------3----------|-----------------------|-----6------------------|
    ---------3----------|--3--------------------|--3---------------------|
    
                                                                                    
    -------------------------|--------------------------|--------------------------|
    ----------3--------------|--4h-3--4h-3--4h-3--4h-3--|--------3h-0--------0-----|
    -------0--------0--------|--------------------------|-----0-----------0-----0--|
    -------------5-----------|--------------------------|--------------3-----------|
    -------------------------|--------------------------|--------------------------|
    ----3--------------3--3--|--------------------------|--3-----------------------|
    
                                                                                 
    ------------------------|--------------------------|------------------------|
    --------1---------------|--------3h-0--------0-----|--------1--3--3r---1----|
    -----0--------2r-----0--|-----0-----------0-----0--|-----0------------------|
    --1--------1------------|--------------3-----------|--1---------------------|
    ------------------------|--------------------------|------------------------|
    ------------------------|--3-----------------------|------------------------|
    
                                                                   
    --------------------|--------3------------|-------------------|
    --1------0----------|-------------4----3--|-------------------|
    --0------0----------|---------------------|----0--------------|
    --------------------|---------------------|-------------------|
    --------------------|---------------------|-------------------|
    --------------------|---------------------|-------------------|
    
                                                                    
    --------3------------|-------------------|--------2------------|
    -------------4----3--|-------------------|-------------4----3--|
    ---------------------|----0--------------|---------------------|
    ---------------------|-------------------|---------------------|
    ---------------------|-------------------|---------------------|
    ---------------------|-------------------|---------------------|
    
                                                                              
    -------------------------|--------------------3-----|--------------------|
    ------3/1/3--3--------3--|--4-----------4-----------|------3------3------|
    -------------------------|-----7-----7-----0-----0--|------4------4------|
    -------------------------|--------5-----------------|------5------3------|
    -------------------------|--------------------------|--------------------|
    -------------------------|--------------------------|--------------------|
    
                                                                   
    --------------------|--------------------|--------------------|
    --1------4----------|------3------3------|--1------4----------|
    --0------5----------|------4------4------|--0------5----------|
    --1------4----------|------5------3------|--1------4----------|
    --0------3----------|--------------------|--0------3----------|
    ---------3----------|--------------------|---------3----------|
    
                                                                                 
    -----------------------|-------------------------|--------------------------|
    ----------0------------|-----------1-------------|--------0--3-----3--------|
    -------------0---------|--------0-------0--------|-----0-----------------0/-|
    -------0------------0--|-----1-------------1--0--|--------------------------|
    -----------------------|-------------------------|--------------------------|
    --3--------------------|--3----------------------|--3-----------3-----3-----|
    
                                                                                  
    --------------------------|--------------------------|-----------------------|
    --4h-3--4h-3--4h3-4h-3----|--------3h-0--------0-----|--------1--------------|
    --------------------------|-----0-----------0-----0--|-----0-------2b---0----|
    --------------------------|--------------3-----------|--1--------------------|
    --------------------------|--------------------------|-----------------------|
    --------------------------|--3-----------------------|-----------------------|
    
                                                                     
    --------------------------|------------------|------------------|
    --------3h-0--------0-----|------------------|------------------|
    -----0-----------0-----0--|------------------|------------------|
    --------------3-----------|------------------|------------------|
    --------------------------|------------------|------------------|
    --3-----------------------|------------------|------------------|
    
                                                                                
    ------------------|------------------|------------------|------------------|
    ------------------|------------------|------------------|------------------|
    ------------------|------------------|------------------|------------------|
    ------------------|------------------|------------------|------------------|
    ------------------|------------------|------------------|------------------|
    ------------------|------------------|------------------|------------------|
    
                                                             
    ------------------|------------------|------------------|
    ------------------|------------------|------------------|
    ------------------|------------------|------------------|
    ------------------|------------------|------------------|
    
    Узнай ВСЕ о своем друге в ВК или FB
    ------------------|------------------|------------------| ------------------|------------------|------------------| --------------------------|------------------------|--------------------------| --------3h-0--------0-----|--------1---------------|--------3h-0--------0-----| -----0-----------0-----0--|-----0--------2r-----0--|-----0-----------0-----0--| --------------3-----------|--1--------1------------|--------------3-----------| --------------------------|------------------------|--------------------------| --3-----------------------|------------------------|--3-----------------------| -------------------------|--------------------|--------3------------| --------1/-4--------4----|--1------0----------|-------------4----3--| -----2-----------5-------|--0------0----------|---------------------| --1-----------4----------|--------------------|---------------------| -------------------------|--------------------|---------------------| -------------------------|--------------------|---------------------| -------------------|--------3------------|-------------------| -------------------|-------------4----3--|-------------------| ----0--------------|---------------------|----0--------------| -------------------|---------------------|-------------------| -------------------|---------------------|-------------------| -------------------|---------------------|-------------------| --------2------------|-------------------------|--------------------3-----| -------------4----3--|------3/1/3--3--------3--|--4-----------4-----------| ---------------------|-------------------------|-----7-----7-----0-----0--| ---------------------|-------------------------|--------5-----------------| ---------------------|-------------------------|--------------------------| ---------------------|-------------------------|--------------------------| --------------------|--------------------|--------------------| ------3------3------|--1------4----------|------3------3------| ------4------4------|--0------5----------|------4------4------| ------5------3------|--1------4----------|------5------3------| --------------------|--0------3----------|--------------------| --------------------|---------3----------|--------------------| --------------------|-----------------------|-------------------------| --1------4----------|----------0------------|-----------1-------------| --0------5----------|-------------0---------|--------0-------0--------| --1------4----------|-------0------------0--|-----1-------------1--0--| --0------3----------|-----------------------|-------------------------| ---------3----------|--3--------------------|--3----------------------| --------------------------|------------------|------------------| --------0--3-----3--------|------------------|------------------| -----0-----------------0/-|------------------|------------------| --------------------------|------------------|------------------| --------------------------|------------------|------------------| --3-----------3-----3-----|------------------|------------------| ------------------|------------------|------------------|------------------| ------------------|------------------|------------------|------------------| ------------------|------------------|------------------|------------------| ------------------|------------------|------------------|------------------| ------------------|------------------|------------------|------------------| ------------------|------------------|------------------|------------------| ------------------|------------------|------------------|------------------| ------------------|------------------|------------------|------------------| ------------------|------------------|------------------|------------------| ------------------|------------------|------------------|------------------| ------------------|------------------|------------------|------------------| ------------------|------------------|------------------|------------------| ------------------|------------------|------------------|------------------| ------------------|------------------|------------------|------------------| ------------------|------------------|------------------|------------------| ------------------|------------------|------------------|------------------| ------------------|------------------|------------------|------------------| ------------------|------------------|------------------|------------------| ------------------|------------------|------------------|------------------| ------------------|------------------|------------------|------------------| ------------------|------------------|------------------|------------------| ------------------|------------------|------------------|------------------| ------------------|------------------|------------------|------------------| ------------------|------------------|------------------|------------------| ------------------|------------------|------------------|------------------| ------------------|------------------|------------------|------------------| ------------------|------------------|------------------|------------------| ------------------|------------------|------------------|------------------| ------------------|------------------|------------------|------------------| ------------------|------------------|------------------|------------------| ------------------|------------------|------------------|------------------| ------------------|------------------|------------------|------------------| ------------------|------------------|------------------|------------------| ------------------|------------------|------------------|------------------| ------------------|------------------|------------------|------------------| ------------------|------------------|------------------|------------------| ------------------|------------------|------------------|------------------| ------------------|------------------|------------------|------------------| ------------------|------------------|------------------|------------------| ------------------|------------------|------------------|------------------| ------------------|------------------|------------------|------------------| ------------------|------------------|------------------|------------------| ------------------|------------------|------------------|------------------| ------------------|------------------|------------------|------------------| ------------------|------------------|------------------|------------------| ------------------|------------------|------------------|------------------| ------------------|------------------|------------------|------------------| ------------------|------------------|------------------|------------------| ------------------|------------------|------------------|------------------| ------------------|------------------|------------------|------------------| ------------------|------------------|------------------|------------------| ------------------|------------------|------------------|------------------| ------------------|------------------|------------------|------------------| ------------------|------------------|------------------|------------------| ------------------|------------------|------------------|------------------| ------------------|------------------|------------------|------------------| ------------------|------------------|------------------|------------------| ------------------|------------------|------------------|------------------| ------------------|------------------|------------------|------------------| ------------------|------------------|------------------|------------------| ------------------|| ------------------|| ------------------|| ------------------|| ------------------|| ------------------||

    найти лекарство
    список лекарств






    О сайтеАккордыХит-парадПоискУроки ФорумыИщу песню
    ПрограммыСвежачок-сПодпискаСтатьи
    Яндекс.Метрика