Табулатура Radiohead | There There гитара табулатуры уроки тексты песен Radiohead текст lyrics песня аккорды песни ноты нота электрогитара струна  
   А Б В Г Д Е Ж З И К Л М Н О П Р С Т У Ф Х Ч Ш Ы Э Ю Я       Разные песни
1-9 A B C D E F G H I J K L M N O P Q R S T U V W Y Z      Все исполнители in english

    



группа Radiohead, Табулатура песни There There

Продолжаем грести бабос на ботах в Telegram.
Только в этот раз есть вариант автоматизировать это дело, привлекая рефералов. Вы можете заработать если »

Группа: Radiohead - другие аккорды (189),   о группе (6 статей),   диски (9),   фотографии (134)
Табулатура песни: There There
Просмотров: 1252
Подобрал: Badtimes (indiespace@akkords.ru)




    
Artist: Radiohead
Song: There There
Chords used in song:
Bm  
Dm  
Am 
Em  
Rhythm Guitar plays:
(Bm) 4 beats, (Dm) 2 beats, (Am) 2 beats, (Em) 3 beats
Lead Guitar:
   Bm
e|-----7--------7--------7--------7---
B|------------------------------------
G|---7---7----7---7----7---7----7---7-
D|------------------------------------
A|------------------------------------
E|-7--------7--------7--------7-------
  
   Dm		                Am
e|-----7-------7--------7--------7---------
B|-------6--------5-----------------0------
G|--------------------5---5----5-----------
D|---7-------7------7--------7-------------
A|-5-------5-------------------------------
E|-----------------------------------------
   Em
e|------7---------7---------7--------------
B|----0---0-----0---0-----0---0------------
G|-----------------------------------------
D|-----------------------------------------
A|-7--------7----------7---------7---------
E|-----------------------------------------
Solo:
e|--------------------------------------------
B|--------------------------------------------
G|--------------------------------------------
D|-4-4-4-4-6h7-7--4-4-4-4-5p6--4-4-4-4-4-4-4--
A|--------------------------------------------
E|--------------------------------------------
e|-------------------------------
B|-------------------------------

Продолжаем грести бабос на ботах в Telegram.
Только в этот раз есть вариант автоматизировать это дело, привлекая рефералов. Вы можете заработать если »

G|------------------------------- D|-7-7-7-7-7-7-5--5-5-7-7-5-2-0-- A|------------------------------- E|------------------------------- Bm why so green? and Dm lonely Am lonely Em lonely Bm heaven sent you Dm to me Am to me Em to me Bm we are accidents Dm waiting Am waiting Em to happen Bm we are accidents Dm waiting Am waiting Em to happen

искать в аптеке
список лекарств






О сайтеАккордыХит-парадПоискУроки ФорумыИщу песню
ПрограммыСвежачок-сПодпискаСтатьи
Яндекс.Метрика