Табулатура ДДТ | 180 Сантиметров гитара табулатуры уроки тексты песен ДДТ текст lyrics песня аккорды песни ноты нота электрогитара струна  
   А Б В Г Д Е Ж З И К Л М Н О П Р С Т У Ф Х Ч Ш Ы Э Ю Я       Разные песни
1-9 A B C D E F G H I J K L M N O P Q R S T U V W Y Z      Все исполнители in english

    



группа ДДТ, Табулатура песни 180 Сантиметров

Продолжаем грести бабос на ботах в Telegram.
Только в этот раз есть вариант автоматизировать это дело, привлекая рефералов. Вы можете заработать если »

Группа: ДДТ - другие аккорды (189),   о группе (9 статей),   диски (7),   фотографии (16)
Табулатура песни: 180 Сантиметров
Просмотров: 2177
Подобрал: XAPBAT (bam@ufacom.ru)




    
(.) соло (.)
1)------3---------3--2--3---2---3-------3---0------------3----2---3---2---3------3--------0--
2)------0---------0--0--0---0---0-------3---3------------0----0---0---0---0------3--------2--
3)------0---------------------------------------------------------------------------------0--4)-----------------------------------------------------0----------------------------------0--
5)-----------------------------------------------------2----------------------------------2--
6)----------------------------------------------------------------------------------------3--
ПЕРЕБОР :
ДЛЯ  ---   G:
1)---------------------1--------------------------
2)------------------------0-----------------------
3)---------------0----------0---------------------
4)-----------------------------------------------
5)-----------------------------------------------
6)---------3------------------------------------
ДЛЯ ---  С:
1)---------------------0--------------------------
2)------------------------1-----------------------
3)---------------0----------0---------------------
4)-----------------------------------------------
5)---------3------------------------------------------
6)-----------------------------------------------
ДЛЯ ---  D:
1)---------------------2--------------------------
2)------------------------3-----------------------
3)---------------2----------2---------------------
4)-----------------------------------------------
5)----------0------------------------------------------
6)-----------------------------------------------
СОЛО 2раза
     /    после *лили дожди* начинается перебор,       /
    /     а до этого просто по струнам вниз.          /

Продолжаем грести бабос на ботах в Telegram.
Только в этот раз есть вариант автоматизировать это дело, привлекая рефералов. Вы можете заработать если »

-------G Сто восемьдесят сантиметров назад C------------------D Мы были одни. ---G Мама, я тебе был так рад, ----------------C------------------------D И девять месяцев лили дожди. И девять месяцев пела вода, А потом обратилась в лед, И Тот, Кто съел пуповину и порвал провода, Благословил наш первый полет. Сто восемьдесят сантиметров назад Над нашей бренной землей Гнал лошадей непокорный отряд, Закован медной броней. Империя рушилась, резали власть Тайны дворцовых теней, Но земля победила, не позволив пропасть, Превратила нас в стаю камней. Сто восемьдесят сантиметров назад Ты вышивала следы, По которым пройду я и стану у врат Града небесной руды, Золотые дороги в холодном снегу, Я хочу и могу быть живым, И один сантиметр для нас сберегу, Мы вырастем следом за ним.

лекарство в аптеке
список лекарств






О сайтеАккордыХит-парадПоискУроки ФорумыИщу песню
ПрограммыСвежачок-сПодпискаСтатьи
Яндекс.Метрика