Табулатура Deep Purple | Anya  (2) гитара табулатуры уроки тексты песен Deep Purple текст lyrics песня аккорды песни ноты нота электрогитара струна  
   А Б В Г Д Е Ж З И К Л М Н О П Р С Т У Ф Х Ч Ш Ы Э Ю Я       Разные песни
1-9 A B C D E F G H I J K L M N O P Q R S T U V W Y Z      Все исполнители

    



группа Deep Purple, Табулатура песни Anya (2)

Группа: Deep Purple - другие аккорды (86),   о группе (2 статей),   диски (24),   фотографии (10)
Табулатура песни: Anya (2)
Просмотров: 1264
Подобрал: SHTORLING (shtorling@rin.ru)




    
это вступление!!!!
E||----------|--------12--12h-13--12--10--|
B||----------|----------------------------|
G||----------|----------------------------|
D||----------|----------------------------|
A||----------|----------------------------|
E||----------|----------------------------|
--12--10h12-10---------------------------|------------------------|
--------------------13-15-13h15h13-12----|--12--------------------|
--------------------------------------14-|------13----------------|
-----------------------------------------|----------14------------|
-----------------------------------------|------------------------|
-----------------------------------------|------------------------|
--5----------------|--5----------------|-------------------------|
--6----------------|--5----------------|------5-5h6----5---------|
--7----------------|--5----------------|-------------7-----------|
--7----------------|--7----------------|----7--------------------|
--5----------------|--7----------------|--0----------------------|
--x----------------|--5----------------|-------------------------|
------------------------------------|------------------------------|
------------------------------------|------------------------------|
-----5-7-5h7h5h7-5----4h5h4---4-5---|----------4--4--5--5h4-5h4----|
---7------------------------7-------|-------7-------------------7--|
------------------------------------|----7-------------------------|
------------------------------------|------------------------------|
-----------------------|----------------------------------|
-----------------------|-------------------5--------------|
--4--------------4--5--|--4~-------------4---4-2-4-5-4-5--|
--5--------6--7--------|-------7--6----2------------------|
--5--------------------|-------------0--------------------|

Продолжаем грести бабос на ботах в Telegram.
Только в этот раз есть вариант автоматизировать это дело, привлекая рефералов. Вы можете заработать если »

--3--------------------|----------------------------------| ------------------5-------|--1-----------0-----------| --------------------5---5-|--------3-----------1-----| ----------------5-----5---|-----2-----2-----2-----2--| --------------7-----------|--0-----------------------| ------------7-------------|--------------3-----------| ----------5---------------|--------------------------| --------------------------|------------------------3-7-3---------| --3-----0-----1--------0--|--1--0-----0--------0-3-------3-0-----| --------------------2-----|--------2---------0---------------0---| -----2-----2-----2--------|----------------0-------------------0-| --2-----------0-----------|--------------------------------------| --------------------------|--------------3-----------------------| ----------3--1-3-1-3-1-0---|--0------------------------------------------| -------------------------3-|-----0-1-3-1-0-------------------------------| ---------------------------|---------------1-2-4-2-1---------------------| ---------------------------|-------------------------0-2-3-2-0-----------| ---------------------------|-----------------------------------0-2-3-2-0-| ---------------------------|---------------------------------------------| -----0-0-0------------|----|| -----0-0-0------------|----|| -----1-1-1------------|----|| -----2-2-2------------|----|| -----2-2-2------------|----|| --0-------------------|----||








О сайтеАккордыХит-парадПоискУроки ФорумыИщу песню
ПрограммыСвежачок-сПодпискаСтатьи
Яндекс.Метрика