Табулатура Песни из кинофильмов | Тема К Фильму "Крёстный Отец" гитара табулатуры уроки тексты песен Песни из кинофильмов текст lyrics песня аккорды песни ноты нота электрогитара струна  
   А Б В Г Д Е Ж З И К Л М Н О П Р С Т У Ф Х Ч Ш Ы Э Ю Я       Разные песни
1-9 A B C D E F G H I J K L M N O P Q R S T U V W Y Z      Все исполнители

    



группа Песни из кинофильмов, Табулатура песни Тема К Фильму "Крёстный Отец"

Группа: Песни из кинофильмов - другие аккорды (207)
Табулатура песни: Тема К Фильму "Крёстный Отец"
Просмотров: 2311
Подобрал: Илья (Hal-88@yandex.ru)




    
1. Основная тема (звучит в начале первой части)
                |-------------------------------|
                |-15----14-15-16-15-15----------|
                |-----------------------15~~~~\\-|
                |-------------------------------|
                |-------------------------------|
                |-------------------------------|
                |---------------------------------------|
                |--15---14-15-16-15-15------------------|
                |----------------------14~~~~\\----------|
                |---------------------------------------|
                |---------------------------------------|
                |---------------------------------------|
                |-------------13------------------|
                |-15~~~-14-15----15-14---17--15---|
                |---------------------------------|
                |---------------------------------|
                |---------------------------------|
                |---------------------------------|
                |-----------------------------------------|
                |---------------14------------------------|
                |--15--14--15-------15---14~~~~~\\---------|
                |-----------------------------------------|
                |-----------------------------------------|
                |-----------------------------------------|
                2. Сицилия
                |----10-13-12-10-13-10-12-10----------|
                |-10-------------------------11-13-10-|
                |-------------------------------------|
                |-------------------------------------|
                |-------------------------------------|
                |-------------------------------------|
                |----10-13-12-10-13-10-12-10----------|
                |-10-------------------------/10-9-8--|

Продолжаем грести бабос на ботах в Telegram.
Только в этот раз есть вариант автоматизировать это дело, привлекая рефералов. Вы можете заработать если »

|-------------------------------------| |-------------------------------------| |-------------------------------------| |-------------------------------------| |-----------/-------------| |----6-9--12----6--9-10---| |-/7----------7-----------| |-------------------------| |-------------------------| |-------------------------| |---------------------------------------| |--------13-11-10-13-11-11-10-10--------| |-----10--------------------------------| |-/12---------------------------11-12---| |---------------------------------------| |---------------------------------------| |-10-10-9-8-10/12-10---------| |--------------------11-10---| |----------------------------| |----------------------------| |----------------------------| |----------------------------| |---------------------------------10--| |--10-13-10-8----8-11-9-10-----10-----| |-------------------------------------| |-------------------------------------| |-------------------------------------| |-------------------------------------|

Уфа аренда автобусов на свадьбу
Аренда автобуса, микроавтобуса по городу и для междугородних поездок
avtoimperiya.com







О сайтеАккордыХит-парадПоискУроки ФорумыИщу песню
ПрограммыСвежачок-сПодпискаСтатьи
Яндекс.Метрика