Табулатура Radiohead | Kid A  (2) гитара табулатуры уроки тексты песен Radiohead текст lyrics песня аккорды песни ноты нота электрогитара струна  
   А Б В Г Д Е Ж З И К Л М Н О П Р С Т У Ф Х Ч Ш Ы Э Ю Я       Разные песни
1-9 A B C D E F G H I J K L M N O P Q R S T U V W Y Z      Все исполнители in english

    



группа Radiohead, Табулатура песни Kid A (2)

Продолжаем грести бабос на ботах в Telegram.
Только в этот раз есть вариант автоматизировать это дело, привлекая рефералов. Вы можете заработать если »

Группа: Radiohead - другие аккорды (189),   о группе (6 статей),   диски (9),   фотографии (134)
Табулатура песни: Kid A (2)
Просмотров: 978
Подобрал: Badtimes (indiespace@akkords.ru)




    
RADIOHEAD
Morning Bell
from "Kid A" (2000)
keyboard adapted to guitar
intro:
  A5                   Dbm                   
-------------------------------------------
--10---10---10---10-----9----9----9----9---
---9----9----9----9-----9----9----9----9---
---7----7----7----7----11---11---11---11---
-------------------------------------------
-------------------------------------------
(repeat 3x)
at "release me" play:
    G                 D
---------------------------------------
----8---8----8----8---7---7----7----7--
----7---7----7----7---7---7----7----7--
----9---9----9----9---7---7----7----7--
---------------------------------------
---------------------------------------
(repeat 2x)
verse:
same as intro - part I 3x, part II 2x
at "please" play:
   A5                                   A
-----------------------------------------------------------
--10----10----10----10------10------10----10----10----10---
---9-----9-----9-----9-------9-------9-----9-----9-----9---
---7-----7-----7-----7------11------11----11----11----11---
-----------------------------------------------------------
-----------------------------------------------------------
(repeat 3x)
back to "release me" (G to D)
then back to verse. Gtr plays ambient noise, with effects, focusing on these notes:
--------------12---

Продолжаем грести бабос на ботах в Telegram.
Только в этот раз есть вариант автоматизировать это дело, привлекая рефералов. Вы можете заработать если »

------10----------- -------------------- --7---------------- ------------------- ------------------- for the G and D on 2nd verse guitar enters: G D ------------------------------------------3----3----3----3----3----2----2--- ----0----0----0----0----0----0----0-------3----3----3----3----3----3----3--- ----2----2----2----2----2----0----0-------2----2----2----2----2----2----2--- ----0----0----0----0----0----0----0-------0----0----0----0----0----0----0--- ---------------------------------------------------------------------------- ----3----3----3----3----3----3----3----------------------------------------- at "got the kids in bed" play: Em Abm -------------------------------------------- -------------------------------------------- ------------------------4----4----4----4---- ----5----5----5----5----6----6----6----6---- ----7----7----7----7----6----6----6----6---- ----0----0----0----0------------------------ (repeat 3x) D A ----------------------------------------------------- ----3-----3-----3-----3-----3------3------3------3--- ----2-----2-----2-----2-----4------4------4------4--- ----4-----4-----4-----4-----5------5------5------5--- ----5-----5-----5-----5-----5------5------5------5--- ----------------------------------------------------- (back to A5 to Dbm)

найти лекарство
список лекарств






О сайтеАккордыХит-парадПоискУроки ФорумыИщу песню
ПрограммыСвежачок-сПодпискаСтатьи
Яндекс.Метрика