Аккорды H.I.M. | Sweet Pandemonium гитара табулатуры уроки тексты песен H.I.M. текст lyrics песня аккорды песни ноты нота электрогитара струна  
   А Б В Г Д Е Ж З И К Л М Н О П Р С Т У Ф Х Ч Ш Ы Э Ю Я       Разные песни
1-9 A B C D E F G H I J K L M N O P Q R S T U V W Y Z      Все исполнители in english

    



группа H.I.M., Аккорды песни Sweet Pandemonium

Группа: H.I.M. - другие аккорды (273),   о группе (2 статей),   диски (5),   фотографии (82)
Аккорды песни: Sweet Pandemonium
Просмотров: 1750
Подобрал: Артём (timon14@inbox.ru)




    
-H-I-M- "Sweet Pandemonium"
---------------------------
Вступительная часть/соло:
1|-------------------------------------------|----------------------------------------------|
2|-------------------------------------------|----------------------------------------------|
3|-------------------------------------------|----------------------------------------------|
4|-------------------------------------------|----------------------------------------------|
5|--3/5--5-5/5--3-3--3-|--1/3--3--3/1--------|--3/5--5--5/6--5--3-3-3-|--1/3--3--3/1--------|
6|-------------------------------------3-3-3-|----------------------------------------3-3-3-|
    
    Gm      F        Cm
1|--3----|--1-----|--3-----|  - теперь, эти аккорды вместе с соло (что вверху)
2|--3----|--1-----|--3-4---|
3|--3----|--1-2---|--3---5-|
4|--3--5-|--1---3-|--3---5-|
5|--3--5-|--1---3-|--3-----|
6|--3----|--1-----|--------|

Gm     Cm                Gm   F                   Cm
Today, tomorrow seems so far away and the wait in vain   [и снова проигрышь верхней части]
Gm      Cm                       Gm     F                      Cm
So safe in the blinding light of love unchained in yesterday's grave


    Am                 F         C  G                     Am      F        C       G
The truth that could set souls free                   1|--5----|--1-----|--3----|--3-----|
   Am         F          G                            2|--5----|--1-----|--3--5-|--3-----|
Is buried within sweet pandemonium                    3|--5----|--1-2---|--3--5-|--3-4---|
   Am          F  C  G                                4|--5--7-|--1---3-|--3--5-|--3---5-|
Concealed by disbelief                                5|--5--7-|--1---3-|--3----|--3---5-|
    Am             F               G                  6|--5----|--1-----|-------|--3-----|
The riddle stays veiled in sweet pandemonium

Продолжаем грести бабос на ботах в Telegram.
Только в этот раз есть вариант автоматизировать это дело, привлекая рефералов. Вы можете заработать если »

Afraid that everything remains unchanged in this fragile dream Ashamed of the shattered remains of promises made Em D Am Drained by the anger and grief Em D Am Fazed by the envy and greed Em D Am The secret cries for a release Em D Am Em The lucidity hidden deep in SWEET PANDEMONIUM. Соло, другая тональность. D - 30 или 32 раза, один и тот же аккорд. 1|----------------------|-----------------------|---5--5--5--| 2|----------------------|-----------------------|---7--7--7--| 3|----------------------|-----------------------|---7--7--7--| 4|----------------------|-----------------------|---7--7--7--| 5|--0/2--2--2-2--0-0--0-|-----------------------|---5--5--5--| 6|----------------------|--3/5--5--5-3--0-0--0--|------------| Am F C G The truth that could set souls free Am F G Is buried within sweet pandemonium Am F C G Concealed by disbelief Am F G The riddle stays veiled in sweet pandemonium








О сайтеАккордыХит-парадПоискУроки ФорумыИщу песню
ПрограммыСвежачок-сПодпискаСтатьи
Яндекс.Метрика