Табулатура Rival Schools | Used For Glue гитара табулатуры уроки тексты песен Rival Schools текст lyrics песня аккорды песни ноты нота электрогитара струна  
   А Б В Г Д Е Ж З И К Л М Н О П Р С Т У Ф Х Ч Ш Ы Э Ю Я       Разные песни
1-9 A B C D E F G H I J K L M N O P Q R S T U V W Y Z      Все исполнители

    



группа Rival Schools, Табулатура песни Used For Glue

Группа: Rival Schools - другие аккорды (5)
Табулатура песни: Used For Glue
Просмотров: 2305
Подобрал: Kc-82




    
Rival Schools / Used For Glue 
Intro:
 
E:---------------------------------------------------------------------------
B:--10------10-----10------10-10-10------------------------------------------
G:---9-------8------9------9--9--9-------------------------------------------
D:---7-------7------7------7--7--7-------------------------------------------
A:--------------------------------------------------------------------------- 
D:---------------------------------------------------------------------------
Main Riff Of The Song:
E:------------------------------------------------------------------------------
B:------------------------------------------------------------------------------
G:------------------------------------------------------------------------------
D:------------------------------------------------------------------------------
A:------4---4---4---4---4---4---4---x---4---4---4---4---4---4------------------- 
D:------4---4---4---4---4---4---4---x---4---4---4---4---4---4-------------------
            
Verse:
E:-------------------------------------------------------------------------
B:-------------------------------------------------------------------------
G:-------------------------------------------------------------------------
D:-------------------------------------------------------------------------          
A:----0--------0-------0-------0-------------------------------------------   
D:----0--------0-------0-------0------------------------------------------- 
Verse Riff:
E:-------------------------------------------------------------------------
B:----------5-----5-------5-----5-------5------5-------5------5------------
G:-------0-----0-------0-------0------0-----0--------0-----0---------------
D:-----4-------------4--------------4---------------4----------------------         
A:-------------------------------------------------------------------------   
D:-------------------------------------------------------------------------        
Chorus:
E:-----------------------------------------------------------------------
B:-----------------------------------------------------------------------
G:-----------------------------------------------------------------------
D:-----------------------------------------------------------------------           
A:----4----4--x--5--5--5--5-----0--0--0--0--0--0-------------------------         
D:----4----4--x--5--5--5--5-----0--0--0--0--0--0-------------------------
Solo:
E:-----------------------------------------------------------------------

Продолжаем грести бабос на ботах в Telegram.
Только в этот раз есть вариант автоматизировать это дело, привлекая рефералов. Вы можете заработать если »

B:----------------------------------------------------------------------- G:----------------------------------------------------------------------- D:--4-4-4---6-6-6---7-7-7---11-11-11---9-9-9---7-7-7---6-6-6---5-5-5----- A:----------------------------------------------------------------------- D:----------------------------------------------------------------------- E:------------------------------------------------------------------------ B:------------------------------------------------------------------------ G:------------------------------------------------------------------------ D:--4-4-4---2-2-2---0-0-0------------------------------------------------- A:----------------------------4-4-4---2-2-2---0-0-0--------6-6------------ E:-----------------------------------------------------6-6-6-6-6---------- E:------------------------------------------------------------------------ B:------------------------------------------------------------------------ G:------------------------------------------------------------------------ D:------------------------------------------------------------------------ x2 A:------4---4---4---4---4---4---4---x---4---4---4---4---4---4------------- D:------4---4---4---4---4---4---4---x---4---4---4---4---4---4------------- E:------------------------------------------------------------------------- B:---------------------------------19-19-19-19-19-19-19-19----------------- G:--18-18-18-18-18-18-18-18------------------------------------------------ D:------------------------------------------------------------------------- x2 A:------------------------------------------------------------------------- D:------------------------------------------------------------------------- E:------------------------------------------------------------------------ B:--17-17-17-17-17-17-17-17----------------------------------------------- G:--------------------------------19-19-19-19-19-19-19-19----------------- D:------------------------------------------------------------------------ A:------------------------------------------------------------------------ D:------------------------------------------------------------------------ E:------------------------------------------------------------------- B:--17-17-17-17-17-17-17-17---19-19-19-19-19-19-19-19----19^--------- G:------------------------------------------------------------------- D:------------------------------------------------------------------- A:------------------------------------------------------------------- D:-------------------------------------------------------------------

Пироги с доставкой в Екатеринбурге
Сытый Хлопчик Меню с ценами и фотографиями
edok66.ru







О сайтеАккордыХит-парадПоискУроки ФорумыИщу песню
ПрограммыСвежачок-сПодпискаСтатьи
Яндекс.Метрика