Табулатура Nightwish | Swanheart гитара табулатуры уроки тексты песен Nightwish текст lyrics песня аккорды песни ноты нота электрогитара струна  
   А Б В Г Д Е Ж З И К Л М Н О П Р С Т У Ф Х Ч Ш Ы Э Ю Я       Разные песни
1-9 A B C D E F G H I J K L M N O P Q R S T U V W Y Z      Все исполнители in english

    



группа Nightwish, Табулатура песни Swanheart

Работа в Европе для граждан РФ, Украины, СНГ

  • минимальная зарплата $500.
  • виза и контракт на полгода, возможно продление
  • проживание оплачивает работодатель
  • нужен только загранпаспорт
  • оформление 190 €
  • данное предложение - отличная возможность эмигрировать в Европу и закрепиться здесь навсегда.

  • Мы свяжемся с Вами по WhatsApp или Viber и ответим на любые вопросы.
    на нашем сайте можно почитать подробнее »

    Группа: Nightwish - другие аккорды (414),   о группе (12 статей),   диски (6),   фотографии (25)
    Табулатура песни: Swanheart
    Просмотров: 1068
    Подобрал: Forever (forever@akkords.ru)




        
    NIGHTWISH - "Swanheart"
    	From the album "Oceanborn"
    	Written by Tuomas Holopainen
    2:43
    e:----------------------------------------------------------------------------|
    B:----------------------------------------------------------------------------|
    G:-4---2-----2---7-------4---2-----7-------4----------------------------------|
    D:-4---2-5---2---7---7---4---2-5---7---4---4----------------------------------|
    A:-2---0-5---0---5---4---2---0-5---5---4---2----------------------------------|
    E:-------3---------------------3-------2--------------------------------------|
    3:19 GUITAR SOLO
    This solo is full of slides, bends, hammers...
    This is just the way I play it.
    e:----------------------------------------------------------------------------|
    B:-14-12-10--10/1210--10h12-12-10-9--10-9-7------7-9-10/12-12~--12-10--97---|
    G:-------------------------------------------9--9-----------------------------|
    D:----------------------------------------------------------------------------|
    A:----------------------------------------------------------------------------|
    E:----------------------------------------------------------------------------|
    e:--------------------------------------------------------------------------------|
    B:-14-12-10--10/1210--10h12-12-10-9-10-9-7--------7-9-10/12-12~--12-10--9/12-12~-|
    G:------------------------------------------9--9-9--------------------------------|
    D:--------------------------------------------------------------------------------|
    
    Узнай ВСЕ о своем друге в ВК или FB
    A:--------------------------------------------------------------------------------| E:--------------------------------------------------------------------------------| 3:50 e:-----------------------------------------------------------------------------| B:-----------------------------------------------------------------------------| G:-9-8p9-11-9h8-9-8------13-11-9/8h9-8-----------------------------------------| D:------------------11~----------------11-9------------------------------------| A:------------------------------------------12-11~-----------------------------| E:-----------------------------------------------------------------------------| e:-----------------------------------------------------------------------------| B:-----------------------------------------------------------------------------| G:-13-13-11-9p8-9-8------------------------------------------------------------| D:------------------11-9~--9/11-9h11p9-----------------------------------------| A:-------------------------------------12-11~-11h12-11-------------------------| E:-----------------------------------------------------12----------------------| e:--------------------......................-----------------------------------| B:----------------------------------------------------------17-16-14-12/14~----| G:-----------------8~---it's hard to hear...--9-11-13-14-16--------------------| D:------------9-11-------------------------------------------------------------| A:----9-11-12------------------------------------------------------------------| E:-12-----------------......................-----------------------------------|

    искать в аптеке
    список лекарств

    Взять кредит наличными в Екатерибурге

    Подбор банков, выдающих кредиты наличными. Быстро и без справок

    sberfonds.ru








    О сайтеАккордыХит-парадПоискУроки ФорумыИщу песню
    ПрограммыСвежачок-сПодпискаСтатьи
    Яндекс.Метрика