Табулатура Nightwish | A Return To The Sea гитара табулатуры уроки тексты песен Nightwish текст lyrics песня аккорды песни ноты нота электрогитара струна  
   А Б В Г Д Е Ж З И К Л М Н О П Р С Т У Ф Х Ч Ш Ы Э Ю Я       Разные песни
1-9 A B C D E F G H I J K L M N O P Q R S T U V W Y Z      Все исполнители in english

    



группа Nightwish, Табулатура песни A Return To The Sea

Продолжаем грести бабос на ботах в Telegram.
Только в этот раз есть вариант автоматизировать это дело, привлекая рефералов. Вы можете заработать если »

Группа: Nightwish - другие аккорды (414),   о группе (12 статей),   диски (6),   фотографии (25)
Табулатура песни: A Return To The Sea
Просмотров: 1214
Подобрал: Forever (forever@akkords.ru)




    

NIGHTWISH - "A return to the sea"

(1:45)
e:-----------------------------|
B:-----------------------------|
G:-2-----------2---------------|
D:-2-----5-----2-----5---------|
A:-0-----5-----0-----5---------|
E:-------3-----------3---------|
(2:43)     * = artificial harmonic
   A5                G5     F5        A5          G5       F5         A5
e:-----------------------------------------------------------------------------|
B:---10---10*---10------------------8-10~--10-8--------------------------------|
G:-9----9-----9----97------------9-------------10-9---10-9-7------------------|
D:---------------------10-9-----------------------------------10-9----7~-------|
A:--------------------------10*------------------------------------10----------|
E:-----------------------------------------------------------------------------|
e:-----------------------------------------------------------------------------|
B:-----------------------------------------------------------------------------|
G:-2-----------------2-----------------2---------------------------------------|

Продолжаем грести бабос на ботах в Telegram.
Только в этот раз есть вариант автоматизировать это дело, привлекая рефералов. Вы можете заработать если »

D:-2-----5-----3-----2-----5-----3-----2---------------------------------------| A:-0-----5-----3-----0-----5-----3-----0---------------------------------------| E:-------3-----1-----------3-----1---------------------------------------------| I play the solo like this : A5 G5 F5 A5 e:-----------------------------------------------------------------------------| B:------------------------------------13-12h13p12-10-8-10--5/8-5h8p5h8p5h8p5...| G:-------------------------------9/12------------------------------------------| D:-7-9-10-----7-9-10------10-7-------------------------------------------------| A:--------10---------10-7------------------------------------------------------| E:-----------------------------------------------------------------------------| p.m. . . . G5 F5 A5 e:-----------8-7-5---5---------------------------------------------------------| B:-10--5p7p8-------8---8-7---5-------------------------------------------------| G:-------------------------7---7-5-4p5h4---------------------------------------| D:---------------------------------------5-7-----------------------------------| A:-----------------------------------------------------------------------------| E:-----------------------------------------------------------------------------|

лекарство в аптеке
список лекарств






О сайтеАккордыХит-парадПоискУроки ФорумыИщу песню
ПрограммыСвежачок-сПодпискаСтатьи
Яндекс.Метрика