Табулатура Nightwish | Devil & The Deep Dark Ocean гитара табулатуры уроки тексты песен Nightwish текст lyrics песня аккорды песни ноты нота электрогитара струна  
   А Б В Г Д Е Ж З И К Л М Н О П Р С Т У Ф Х Ч Ш Ы Э Ю Я       Разные песни
1-9 A B C D E F G H I J K L M N O P Q R S T U V W Y Z      Все исполнители in english

    



группа Nightwish, Табулатура песни Devil & The Deep Dark Ocean

Работа в Европе для граждан РФ, Украины, СНГ

  • минимальная зарплата $500.
  • виза и контракт на полгода, возможно продление
  • проживание оплачивает работодатель
  • нужен только загранпаспорт
  • оформление 190 €
  • данное предложение - отличная возможность эмигрировать в Европу и закрепиться здесь навсегда.

  • Мы свяжемся с Вами по WhatsApp или Viber и ответим на любые вопросы.
    на нашем сайте можно почитать подробнее »

    Группа: Nightwish - другие аккорды (414),   о группе (12 статей),   диски (6),   фотографии (25)
    Табулатура песни: Devil & The Deep Dark Ocean
    Просмотров: 1829
    Прислал: Forever (forever@akkords.ru)




        
    NIGHTWISH - "Devil & The Deep Dark Ocean"
    From the album "Oceanborn"
    Tempo 179
    INTRO (RIFF 1)                                |1st,3rd    | 2nd,4th    |
    e:--------------------------------------------|-----------|------------|
    B:--------------------------------------------|-----------|------------|
    G:--------------------------------------------|-7-7--6-6--|-7-7-10-10--|
    D:----2-----------0---------------------------|-7-7--6-6--|-7-7-10-10--|
    A:------2-3---0-2---3--0-2-------3p0-2p0------|-5-5--4-4--|-5-5--8--8--|
    E:-(0)---------------------0-2-0---------3-2--|-----------|------------|
                               . . .
    BRIDGE (0:21)
    e:----------------|
    B:----------------|
    G:--2-2-------2-2-|
    D:--2-2-------2-2-|
    A:--0-0-------0-0-|
    E:----------------|
    VERSE (0:28)
    e:----------------------------------|
    B:----------------------------------|
    G:--------7-7-6-6-------------------|
    D:-3-3----7-7-6-6----3-3----5-5-5-5-|
    A:-3-3----5-5-4-4----3-3----5-5-5-5-|
    E:-1-1---------------1-1----3-3-3-3-|
    CHORUS (0:38)                        |1st       |2nd
    e:-----------------------------------|----------|---------|
    B:-----------------------------------|----------|---------|
    G:-----------------------------------|-7-7-6-6--|---------|
    D:------------10-10-9----------------|-7-7-6-6--|-5-5-5-5-|
    A:-7-7-8-7--7---------8*--7-7-8-7----|-5-5-4-4--|-5-5-5-5-|
    E:-----------------------------------|----------|-3-3-3-3-|
         .      .               .
    
    RIFF 1
    VERESE
    CHORUS
    
    Keyboard part (1:32) (No guitar)
    e:---------------------------------------------|
    B:---------------------------------------------|
    G:---------------------------------------------|
    D:-2-2-----2-2-----10-10----10-10------5-5-5-5-|
    A:-2-2-----2-2-----10-10----10-10------5-5-5-5-|
    E:-0-0-----0-0------8--8-----8--8------3-3-3-3-|
    (2:04) Guitar is back
    e:-------------------------|
    B:-------------------------|
    G:-------------------------|
    D:-2--------7-9-10--10---9-| x2
    A:-2--------7-9-10--10---9-|
    E:-0--------5-7--8---8---7-|
    (2:25) BRIDGE 2
    
    Узнай ВСЕ о своем друге в ВК или FB
    e:----------------------------------------|--------------------------------| B:----------------------------------------|--------------------------------| G:----------------------------------------|*------------------------------*| D:-2-2-2-2-2--2-2-2-2-2--2-2-2--2-2-2-2-2-|*--5--5-5-5--5-5-5--5-5-5--5-5-*| x2 A:-2-2-2-2-2--2-2-2-2-2--2-2-2--2-2-2-2-2-|---5--5-5-5--5-5-5--5-5-5--5-5--| E:-0-0-0-0-0--0-0-0-0-0--0-0-0--0-0-0-0-0-|---3--3-3-3--3-3-3--3-3-3--3-3--| . . . . . . . . . . . . . . . . . . . . . . . . . . . . . . (2:36) Guitar leaves again... (2:46) VERSE 2 e:--------------| B:--------------| G:--------------| D:-2------10--9-| x2 A:-2------10--9-| E:-0-------8--7-| (3:00) RIFF 2 |1st,3rd|2nd,4th| e:--------------------------------------|-------|-------| B:--------------------------------------|-------|-------| G:--------------------------------------|-------|-------| D:-------------4---6---7---6---4--------|---2---|--10---| x4 A:-4---6---7-----------------------7----|---2---|--10---| E:--444-444-444-444-444-444-444-444-444-|---0---|---8---| VERSE 2 RIFF 2 KEYBOARD PART e:----------------------------------| B:----------------------------------| G:----------------------------------| D:-2-2-----2-2-----10-10----10-10---| A:-2-2-----2-2-----10-10----10-10---| E:-0-0-----0-0------8--8-----8--8---| (3:52) VERSE 3 e:|---------------------------|---------------------------| B:|---------------------------|---------------------------| G:|*-------------------------*|---------------------------| D:|*-5---2-4-5-7----9--------*|-5---2-4-5-7----9---10-----| A:|--5---2-4-5-7----9---------|-5---2-4-5-7----9---10-----| E:|--3---0-2-3-5----7---------|-3---0-2-3-5----7----8-----| e:|---------------------------------| B:|---------------------------------| G:|---------------------------------| D:|--10---2-4-5-7----9--------/10-7-| A:|--10---2-4-5-7----9--------------| E:|---8---0-2-3-5----7--------------| OUTRO (Riff 1) Only ones (1st) * = harmonic . = palm muting / = slide up p = pull of

    искать в аптеке
    список лекарств






    О сайтеАккордыХит-парадПоискУроки ФорумыИщу песню
    ПрограммыСвежачок-сПодпискаСтатьи
    Яндекс.Метрика