Табулатура Nightwish | Sleepwalker гитара табулатуры уроки тексты песен Nightwish текст lyrics песня аккорды песни ноты нота электрогитара струна  
   А Б В Г Д Е Ж З И К Л М Н О П Р С Т У Ф Х Ч Ш Ы Э Ю Я       Разные песни
1-9 A B C D E F G H I J K L M N O P Q R S T U V W Y Z      Все исполнители in english

    



группа Nightwish, Табулатура песни Sleepwalker

Работа в Европе для граждан РФ, Украины, СНГ

  • минимальная зарплата $500.
  • виза и контракт на полгода, возможно продление
  • проживание оплачивает работодатель
  • нужен только загранпаспорт
  • оформление 190 €
  • данное предложение - отличная возможность эмигрировать в Европу и закрепиться здесь навсегда.

  • Мы свяжемся с Вами по WhatsApp или Viber и ответим на любые вопросы.
    на нашем сайте можно почитать подробнее »

    Группа: Nightwish - другие аккорды (414),   о группе (12 статей),   диски (6),   фотографии (25)
    Табулатура песни: Sleepwalker
    Просмотров: 1022
    Подобрал: Forever (forever@akkords.ru)




        
    NIGHTWISH - "Sleepwalker"
    (0:17)
    e:---------------|
    B:---------------|
    G:---------------|
    D:---------4-----|
    A:-5-4-2/4-4-----|
    E:---------2-----|
       p.m.
    (0:44)
    e:------------------------------|
    B:------------------------------|
    G:-----4--6--7---2--------------|
    D:-4-4-4--6--7---2---2---4------|
    A:-4-4-2--4--5---0---2---4------|
    E:-2-2---------------0---2------|
    (1:01) I use to play this with a vibrato effect
    e:--------------|
    B:-------3~-----|
    G:----2~--------|
    D:-0~-----------|
    A:--------------|
    E:--------------|
    (1:09)
    e:-----------------------------------------------------------------------------|
    B:-----------------------------------------------------------------------------|
    G:------------------------2--4--------4--6--7---2------------------------------|
    D:-------7---6---4-----4--2--4----4-4-4--6--7---2---2--------------------------|
    
    Узнай ВСЕ о своем друге в ВК или FB
    A:-4-4-4---4---4---4-5-4--0--2----4-4-2--4--5---0---2--------------------------| E:---------------------2----------2-2---------------0--------------------------| p.m. . . . . . . . . (1:42) Guitar solo e:-----------------------------------------------------------------------------| B:-----------------------------------------------------------------------------| G:------------------------------------------------2-----4--6-------------------| D:-------7---6---4-----4---------7---6---4-----4--2--2--4--6-------------------| A:-4-4-4---4---4---4-5-4---4-4-4---4---4---4-5-4--0--2--2--4-------------------| E:---------------------2-----------------------2-----0-------------------------| p.m. . . . . . . . . . . . . . . . . . (1:58) e:-----------------------------------------------------------------------------| B:-----------------------------------------------------------------------------| G:-2----2-------------------7--2-----------------------------------------------| D:-2----2----3----3----2-2--7--2-----------------------------------------------| A:-0----0----3----3----2-2--5--0-----------------------------------------------| E:-----------1----1----0-0-----------------------------------------------------| (2:29) e:-----------------------------------------------------------------------------| B:-----------------------------------------------------------------------------| G:----7--2----2-------------------7--2-----------------------------------------| D:-2--7--2----2----3----3----2-2--7--2-----------------------------------------| A:-2--5--0----0----3----3----2-2--5--0-----------------------------------------| E:-0---------------1----1----0-0-----------------------------------------------|

    искать в аптеке
    список лекарств

    рации баофенг

    racii34.ru








    О сайтеАккордыХит-парадПоискУроки ФорумыИщу песню
    ПрограммыСвежачок-сПодпискаСтатьи
    Яндекс.Метрика