Табулатура Nightwish | Away гитара табулатуры уроки тексты песен Nightwish текст lyrics песня аккорды песни ноты нота электрогитара струна  
   А Б В Г Д Е Ж З И К Л М Н О П Р С Т У Ф Х Ч Ш Ы Э Ю Я       Разные песни
1-9 A B C D E F G H I J K L M N O P Q R S T U V W Y Z      Все исполнители in english

    



группа Nightwish, Табулатура песни Away

Продолжаем грести бабос на ботах в Telegram.
Только в этот раз есть вариант автоматизировать это дело, привлекая рефералов. Вы можете заработать если »

Группа: Nightwish - другие аккорды (414),   о группе (12 статей),   диски (6),   фотографии (25)
Табулатура песни: Away
Просмотров: 1834
Подобрал: Forever (forever@akkords.ru)




    
NIGHTWISH - "Away"

  Chorus at 0:31 and 1:25
e:-----------------------------------------------------------------------------|
B:-----------------------------------------------------------------------------|
G:--------5-----8-----------3-----5-----8--7-----------------------------------|
D:--5--3--5--5--8--3--5-----3--3--5--5--8--7--5--------------------------------|
A:--5--3--3--5--6--3--5-----1--3--3--5--6--5--5--------------------------------|
E:--3--1-----3-----1--3--------1-----3--------3--------------------------------|
  1:56 After the second chorus :
e:-----------------------------------------------------------------------------|
B:-----------------------------------------------------------------------------|
G:------7-------8-------7-----------8---5---7----------------------------------|
D:--8---7---8---8---5---7---3---5---8---5---7---3------------------------------|
A:--8---5---8---6---5---5---3---5---6---3---5---3------------------------------|
E:--6-------6-------3-------1---3---------------1------------------------------|
  3:06 Chorus
e:-----------------------------------------------------------------------------|
B:-----------------------------------------------------------------------------|
G:--------5-----8------------------10------------------------------------------|

Продолжаем грести бабос на ботах в Telegram.
Только в этот раз есть вариант автоматизировать это дело, привлекая рефералов. Вы можете заработать если »

D:--5--3--5--5--8--3--5--------6---10------------------------------------------| A:--5--3--3--5--6--3--5--------6----8------------------------------------------| E:--3--1-----3-----1--3--------4-----------------------------------------------| e:-----------------------------------------------------------------------------| B:-----------------------------------------------------------------------------| G:--5--3-----5--------5-----8--3-----5--------5--------------------------------| D:--5--3--3--5--6--8--5-----8--3--3--5--6--5--5--------------------------------| A:--3--1--3--3--6--8--3-----6--1--3--3--6--5--3--------------------------------| E:--------1-----4--6--------------1-----4--3-----------------------------------| e:-----------------------------------------------------------------------------| B:-----------------------------------------------------------------------------| G:--8--3-----5--------5-----8--3-----5--------5-----------FADE OUT...----------| D:--8--3--3--5--6--8--5-----8--3--3--5--6--5--5--------------------------------| A:--6--1--3--3--6--8--3-----6--1--3--3--6--5--3--------------------------------| E:--------1-----4--6--------------1-----4--3-----------------------------------|

поиск лекарств
список лекарств






О сайтеАккордыХит-парадПоискУроки ФорумыИщу песню
ПрограммыСвежачок-сПодпискаСтатьи
Яндекс.Метрика