Табулатура Nightwish | The Pharaoh Sails To Orion гитара табулатуры уроки тексты песен Nightwish текст lyrics песня аккорды песни ноты нота электрогитара струна  
   А Б В Г Д Е Ж З И К Л М Н О П Р С Т У Ф Х Ч Ш Ы Э Ю Я       Разные песни
1-9 A B C D E F G H I J K L M N O P Q R S T U V W Y Z      Все исполнители in english

    



группа Nightwish, Табулатура песни The Pharaoh Sails To Orion

Работа в Европе для граждан РФ, Украины, СНГ

  • минимальная зарплата $500.
  • виза и контракт на полгода, возможно продление
  • проживание оплачивает работодатель
  • нужен только загранпаспорт
  • оформление 190 €
  • данное предложение - отличная возможность эмигрировать в Европу и закрепиться здесь навсегда.

  • Мы свяжемся с Вами по WhatsApp или Viber и ответим на любые вопросы.
    на нашем сайте можно почитать подробнее »

    Группа: Nightwish - другие аккорды (414),   о группе (12 статей),   диски (6),   фотографии (25)
    Табулатура песни: The Pharaoh Sails To Orion
    Просмотров: 1026
    Подобрал: Forever (forever@akkords.ru)




        
                              The Pharaoh Sails to Orion                            
    
                                                                           Nightwish
    Emmpu (Rhythm Guitar)
    
                                                                                   
    E||------------------|------------------|------------------|------------------|
    B||------------------|------------------|------------------|------------------|
    G||------------------|------------------|------------------|------------------|
    D||------------------|------------------|------------------|------------------|
    A||------------------|------------------|------------------|------------------|
    E||------------------|------------------|------------------|------------------|
    
                                                                                
    ------------------|------------------|------------------|------------------|
    ------------------|------------------|------------------|------------------|
    ------------------|------------------|------------------|------------------|
    ------------------|------------------|------------------|------------------|
    ------------------|------------------|------------------|------------------|
    ------------------|------------------|------------------|------------------|
    
                                                                                 
    ------------------------|--------------------------|------------------------|
    ------------------------|--------------------------|------------------------|
    --7-7------7-7----------|--7-7------7-7------5-----|--7-7------7-7----------|
    --7-7------7-7----------|--7-7------7-7------5-----|--7-7------7-7----------|
    --5-5------5-5----------|--5-5------5-5------3-----|--5-5------5-5----------|
    ------------------------|--------------------------|------------------------|
    
                                                                           
    ----------------------------|-----------------------------------------|
    ----------------------------|-----------------------------------------|
    --7-7------7-7----0-1-0-----|--7--------------7--------------7--------|
    --7-7------7-7-----------1--|--7--------------7--------------7--------|
    --5-5------5-5--------------|--5--5--5--5--5--5--5--5--5--5--5--5--5--|
    ----------------------------|-----------------------------------------|
    
                                              
    -----------------------------------------|
    -----------------------------------------|
    --7--------------7--------------7--------|
    --7--------------7--------------7--------|
    --5--5--5--5--5--5--5--5--5--5--5--5--5--|
    -----------------------------------------|
    
                                              
    -----------------------------------------|
    -----------------------------------------|
    --7--------------7--------------7--------|
    --7--------------7--------------7--------|
    --5--5--5--5--5--5--5--5--5--5--5--5--5--|
    -----------------------------------------|
    
                                              
    -----------------------------------------|
    -----------------------------------------|
    --7--------------7--------------7--------|
    --7--------------7--------------7--------|
    --5--5--5--5--5--5--5--5--5--5--5--5--5--|
    -----------------------------------------|
    
                                                      
    -------------------------------------------------|
    -------------------------------------------------|
    --7----------------------------------------------|
    --7----------------------------------------------|
    --5-5--5--5--5--5--5--5--5--5--5--5--5--5--5--5--|
    -------------------------------------------------|
    
                                                      
    -------------------------------------------------|
    -------------------------------------------------|
    --7----------------------------------------------|
    --7----------------------------------------------|
    --5-5--5--5--5--5--5--5--5--5--5--5--5--5--5--5--|
    -------------------------------------------------|
    
                                                      
    -------------------------------------------------|
    -------------------------------------------------|
    -------------------------------------------------|
    --6----------------------------------------------|
    --6----------------------------------------------|
    --4-4--4--4--4--4--4--4--4--4--4--4--4--4--4--4--|
    
                                                                          
    -------------------------------------------------|-------------------|
    -------------------------------------------------|-------------------|
    -------------------------------------------------|--2----------------|
    --6----------------------------------------------|--2----------------|
    --6----------------------------------------------|--0----------------|
    --4-4--4--4--4--4--4--4--4--4--4--4--4--4--4--4--|-------------------|
    
                                                                          
    -------------------|-------------------------------------------------|
    -------------------|-------------------------------------------------|
    -------------------|--7----------------------------------------------|
    --5----------------|--7----------------------------------------------|
    --5----------------|--5-5--5--5--5--5--5--5--5--5--5--5--5--5--5--5--|
    --3----------------|-------------------------------------------------|
    
                                                
    -------------------------------------------|
    -------------------------------------------|
    --7----------------------------------3--5--|
    --7----------------------------------3--5--|
    --5-5--5--5--5--5--5--5--5--5--5--5--1--3--|
    -------------------------------------------|
    
                                                      
    -------------------------------------------------|
    -------------------------------------------------|
    --7----------------------------------------------|
    --7----------------------------------------------|
    --5-5--5--5--5--5--5--5--5--5--5--5--5--5--5--5--|
    -------------------------------------------------|
    
                                                      
    -------------------------------------------------|
    -------------------------------------------------|
    --7----------------------------------------------|
    --7----------------------------------------------|
    --5-5--5--5--5--5--5--5--5--5--5--5--5--5--5--5--|
    -------------------------------------------------|
    
                                                      
    -------------------------------------------------|
    -------------------------------------------------|
    -------------------------------------------------|
    --6----------------------------------------------|
    --6----------------------------------------------|
    --4-4--4--4--4--4--4--4--4--4--4--4--4--4--4--4--|
    
                                                                          
    -------------------------------------------------|-------------------|
    -------------------------------------------------|-------------------|
    -------------------------------------------------|--2----------------|
    --6----------------------------------------------|--2----------------|
    --6----------------------------------------------|--0----------------|
    --4-4--4--4--4--4--4--4--4--4--4--4--4--4--4--4--|-------------------|
    
                                                                          
    -------------------|-------------------------------------------------|
    -------------------|-------------------------------------------------|
    -------------------|--7----------------------------------------------|
    --5----------------|--7----------------------------------------------|
    --5----------------|--5-5--5--5--5--5--5--5--5--5--5--5--5--5--5--5--|
    --3----------------|-------------------------------------------------|
    
                                                                        
    -------------------------------------------|-----------------------|
    -------------------------------------------|-----------------------|
    --7----------------------------------3--5--|--7----7--8--7----5----|
    --7----------------------------------3--5--|--7----7--8--7----5----|
    --5-5--5--5--5--5--5--5--5--5--5--5--1--3--|--5----5--6--5----3----|
    -------------------------------------------|-----------------------|
    
                                                                         
    ----------------------|-----------------------|---------------------|
    ----------------------|-----------------------|---------------------|
    --7--8--5----7--------|--7----7--8--7----5----|---------------------|
    --7--8--5----7--------|--7----7--8--7----5----|---------------------|
    --5--6--3----5--------|--5----5--6--5----3/---|--8--------6/---5~---|
    ----------------------|-----------------------|---------------------|
    
                                                                            
    -----------------------|----------------------|------------------------|
    -----------------------|----------------------|------------------------|
    --7----7--8--7----5----|--7--8--5----7--------|--7----7--8--7----------|
    --7----7--8--7----5----|--7--8--5----7--------|--7----7--8--7----------|
    --5----5--6--5----3----|--5--6--3----5--------|--5----5--6--5----5--6--|
    -----------------------|----------------------|------------------------|
    
                                                                       
    ---------------------|----------------------|---------------------|
    ---------------------|----------------------|---------------------|
    ---------------------|--4--5--4----2--------|----2--4----5--------|
    --4------------------|--4--5--4----2--------|----2--4----5--------|
    -------3----5--------|--2--3--2----0--------|----0--2----3--------|
    ---------------------|----------------------|---------------------|
    
                                                                           
    -----------------------|---------------------|------------------------|
    -----------------------|---------------------|------------------------|
    --4--5--4----2---------|---------------------|--7--8--7----5----7--8--|
    --4--5--4----2---------|---------------------|--7--8--7----5----7--8--|
    --2--3--2----0----5----|--5----3----2--------|--5--6--5----3----5--6--|
    -----------------------|---------------------|------------------------|
    
                                                                       
    ---------------------|-----------------------|--------------------|
    ---------------------|-----------------------|--------------------|
    --5----7--------7----|--7--8--7--------------|--------------------|
    --5----7--------7----|--7--8--7--------------|--------------------|
    --3----5--------5----|--5--6--5----3/---8----|------6----5--------|
    ---------------------|-----------------------|--------------------|
    
                                                                         
    ----------------------|---------------------|-----------------------|
    ----------------------|---------------------|-----------------------|
    --4--5--4----2--------|----2--4----5--------|--4--5--4----2---------|
    --4--5--4----2--------|----2--4----5--------|--4--5--4----2---------|
    --2--3--2----0--------|----0--2----3--------|--2--3--2----0----5----|
    ----------------------|---------------------|-----------------------|
    
                                                                            
    ---------------------|-------------------------------------------------|
    ---------------------|-------------------------------------------------|
    ---------------------|--7----------------------------------------------|
    --0------------------|--7----------------------------------------------|
    -------3----2--------|--5-5--5--5--5--5--5--5--5--5--5--5--5--5--5--5--|
    ---------------------|-------------------------------------------------|
    
                                                      
    -------------------------------------------------|
    -------------------------------------------------|
    --7----------------------------------------------|
    --7----------------------------------------------|
    --5-5--5--5--5--5--5--5--5--5--5--5--5--5--5--5--|
    -------------------------------------------------|
    
                                                      
    -------------------------------------------------|
    -------------------------------------------------|
    -------------------------------------------------|
    --6----------------------------------------------|
    --6----------------------------------------------|
    --4-4--4--4--4--4--4--4--4--4--4--4--4--4--4--4--|
    
                                                                          
    -------------------------------------------------|-------------------|
    -------------------------------------------------|-------------------|
    -------------------------------------------------|--2----------------|
    --6----------------------------------------------|--2----------------|
    --6----------------------------------------------|--0----------------|
    --4-4--4--4--4--4--4--4--4--4--4--4--4--4--4--4--|-------------------|
    
                                                                          
    -------------------|-------------------------------------------------|
    -------------------|-------------------------------------------------|
    -------------------|--7----------------------------------------------|
    --5----------------|--7----------------------------------------------|
    --5----------------|--5-5--5--5--5--5--5--5--5--5--5--5--5--5--5--5--|
    --3----------------|-------------------------------------------------|
    
                                                
    -------------------------------------------|
    -------------------------------------------|
    --7----------------------------------3--5--|
    --7----------------------------------3--5--|
    --5-5--5--5--5--5--5--5--5--5--5--5--1--3--|
    -------------------------------------------|
    
                                                      
    -------------------------------------------------|
    -------------------------------------------------|
    --7----------------------------------------------|
    --7----------------------------------------------|
    --5-5--5--5--5--5--5--5--5--5--5--5--5--5--5--5--|
    -------------------------------------------------|
    
                                                      
    -------------------------------------------------|
    -------------------------------------------------|
    --7----------------------------------------------|
    --7----------------------------------------------|
    --5-5--5--5--5--5--5--5--5--5--5--5--5--5--5--5--|
    -------------------------------------------------|
    
                                                      
    -------------------------------------------------|
    -------------------------------------------------|
    -------------------------------------------------|
    --6----------------------------------------------|
    --6----------------------------------------------|
    --4-4--4--4--4--4--4--4--4--4--4--4--4--4--4--4--|
    
                                                                          
    -------------------------------------------------|-------------------|
    -------------------------------------------------|-------------------|
    -------------------------------------------------|--2----------------|
    --6----------------------------------------------|--2----------------|
    --6----------------------------------------------|--0----------------|
    --4-4--4--4--4--4--4--4--4--4--4--4--4--4--4--4--|-------------------|
    
                                                                          
    -------------------|-------------------------------------------------|
    -------------------|-------------------------------------------------|
    -------------------|--7----------------------------------------------|
    --5----------------|--7----------------------------------------------|
    --5----------------|--5-5--5--5--5--5--5--5--5--5--5--5--5--5--5--5--|
    --3----------------|-------------------------------------------------|
    
                                                                        
    -------------------------------------------|-----------------------|
    -------------------------------------------|-----------------------|
    --7----------------------------------3--5--|--7----7--8--7----5----|
    --7----------------------------------3--5--|--7----7--8--7----5----|
    --5-5--5--5--5--5--5--5--5--5--5--5--1--3--|--5----5--6--5----3----|
    -------------------------------------------|-----------------------|
    
                                                                            
    ----------------------|-----------------------|------------------------|
    ----------------------|-----------------------|------------------------|
    --7--8--5----7--------|--7----7--8--7----5----|------------------------|
    --7--8--5----7--------|--7----7--8--7----5----|--4---------------------|
    --5--6--3----5--------|--5----5--6--5----3----|--------3-----5---------|
    ----------------------|-----------------------|------------------------|
    
                                                                              
    -----------------------|----------------------|--------------------------|
    -----------------------|----------------------|--------------------------|
    --4--5--4-----2--------|----2--4-----5--------|--4--5--4-----2-----------|
    --4--5--4-----2--------|----2--4-----5--------|--4--5--4-----2-----------|
    --2--3--2-----0--------|----0--2-----3--------|--2--3--2-----0-----5-----|
    -----------------------|----------------------|--------------------------|
    
                                                                               
    -----------------------|--------------------------|-----------------------|
    -----------------------|--------------------------|-----------------------|
    -----------------------|--7--8--7-----5-----7--8--|--5-----7--------7-----|
    -----------------------|--7--8--7-----5-----7--8--|--5-----7--------7-----|
    --5-----3-----2--------|--5--6--5-----3-----5--6--|--3-----5--------5-----|
    -----------------------|--------------------------|-----------------------|
    
                                                                             
    -------------------------|----------------------|-----------------------|
    -------------------------|----------------------|-----------------------|
    --7--8--7----------------|----------------------|--4--5--4-----2--------|
    --7--8--7----------------|----------------------|--4--5--4-----2--------|
    --5--6--5-----3-----8----|-------6-----5~-------|--2--3--2-----0--------|
    -------------------------|----------------------|-----------------------|
    
                                                                              
    ----------------------|--------------------------|-----------------------|
    ----------------------|--------------------------|-----------------------|
    ----2--4-----5--------|--4--5--4-----2-----------|-----------------------|
    ----2--4-----5--------|--4--5--4-----2-----------|-----------------------|
    ----0--2-----3--------|--2--3--2-----0-----5-----|--5-----3-----2--------|
    ----------------------|--------------------------|-----------------------|
    
                                                                                  
    
    Узнай ВСЕ о своем друге в ВК или FB
    -------------------------|-------------------------|-------------------------| -------------------------|-------------------------|-------------------------| --7-------7-----8--8--5--|--7-------7-----7--5-----|--7-------7-----8--8--5--| --7-------7-----8--8--5--|--7-------7-----7--5-----|--7-------7-----8--8--5--| --5-------5-----6--6--3--|--5-------5-----5--3-----|--5-------5-----6--6--3--| -------------------------|-------------------------|-------------------------| -------------------------|-------------------------|-------------------------| -------------------------|-------------------------|-------------------------| --7-------7-----7--5-----|--7-------7-----8--8--5--|--7-------7-----7--5-----| --7-------7-----7--5-----|--7-------7-----8--8--5--|--7-------7-----7--5-----| --5-------5-----5--3-----|--5-------5-----6--6--3--|--5-------5-----5--3-----| -------------------------|-------------------------|-------------------------| -------------------------|-------------------------|-------------------| -------------------------|-------------------------|-------------------| --7-------7-----8--8--5--|--7-------7--7-----5-----|--7----------------| --7-------7-----8--8--5--|--7-------7--7-----5-----|--7----------------| --5-------5-----6--6--3--|--5-------5--5-----3-----|--5----------------| -------------------------|-------------------------|-------------------| -------------------|-------------------|--------------------| -------------------|-------------------|--------------------| --2----------------|--7----------------|-----------5--------| --2----------------|--7----------------|--3--------5--------| --0----------------|--5----------------|--3--------3--------| -------------------|-------------------|--1-----------------| -------------------|-------------------|-------------------|-------------------| -------------------|-------------------|-------------------|-------------------| --7----------------|-------------------|--2----------------|--7----------------| --7----------------|--5----------------|--2----------------|--7----------------| --5----------------|--5----------------|--0----------------|--5----------------| -------------------|--3----------------|-------------------|-------------------| ------------------------------------------------| ------------------------------------------------| --3---------------------------------------------| --3---------------------------------------------| --1-1--1--1--1--1--1--1--1--1--1--1-1--1--1--1--| ------------------------------------------------| --------------------------------------------------| --------------------------------------------------| --------------------------------------------------| --3-----------------------------------------------| --3-----------------------------------------------| --1--1--1--1--1--1--1--1--1--1--1--1--1--1--1--1--| --------------------------------------------------| --------------------------------------------------| --5-----------------------------------------------| --5-----------------------------------------------| --3--3--3--3--3--3--3--3--3--3--3--3--3--3--3--3--| --------------------------------------------------| --------------------------------|-------------------|-------------------| --------------------------------|-------------------|-------------------| --7--------7--------7-----5-----|--3----------------|-------------------| --7--0--0--7--0--0--7-----5-----|--3----------------|--3----------------| --5--5--5--5--5--5--5-----3-----|--1----------------|--3----------------| --------------------------------|-------------------|--1----------------| -------------------|---------------------| -------------------|---------------------| -------------------|--7------------5-----| --5----------------|--7------------5-----| --5----------------|--5------------3-----| --3----------------|---------------------| ------------------------------------------------| ------------------------------------------------| --3---------------------------------------------| --3---------------------------------------------| --1-1--1--1--1--1--1--1--1--1--1--1-1--1--1--1--| ------------------------------------------------| --------------------------------------------------| --------------------------------------------------| --------------------------------------------------| --3-----------------------------------------------| --3-----------------------------------------------| --1--1--1--1--1--1--1--1--1--1--1--1--1--1--1--1--| --------------------------------------------------| --------------------------------------------------| --5-----------------------------------------------| --5-----------------------------------------------| --3--3--3--3--3--3--3--3--3--3--3--3--3--3--3--3--| --------------------------------------------------| --------------------------------|-------------------|-------------------| --------------------------------|-------------------|-------------------| --7--------7--------7-----5-----|--3----------------|-------------------| --7--0--0--7--0--0--7-----5-----|--3----------------|--3----------------| --5--5--5--5--5--5--5-----3-----|--1----------------|--3----------------| --------------------------------|-------------------|--1----------------| -------------------|-------------------|------------------|------------------| -------------------|-------------------|------------------|------------------| -------------------|--7----------------|------------------|------------------| --5----------------|--7----------------|------------------|------------------| --5----------------|--5----------------|------------------|------------------| --3----------------|-------------------|------------------|------------------| ------------------|---------------------|---------------------------| ------------------|---------------------|---------------------------| ------------------|--5-------5----------|--6-----10-----9-----6-----| ------------------|--5-------5----------|--6-----10-----9-----6-----| ------------------|--3-------3----------|--4-----8------7-----4-----| ------------------|---------------------|---------------------------| -----------------------|--------------------------------|---------------------| -----------------------|--------------------------------|---------------------| --5------5----3--5-----|--------------------------------|--5-------5----------| --5------5----3--5-----|--------------------------1-----|--5-------5----------| --3------3----1--3-----|--4--3--1-----3-----4--3--------|--3-------3----------| -----------------------|--------------------------------|---------------------| ---------------------------|-----------------------| ---------------------------|-----------------------| --6-----10-----9-----6-----|--5------5----3--5-----| --6-----10-----9-----6-----|--5------5----3--5-----| --4-----8------7-----4-----|--3------3----1--3-----| ---------------------------|-----------------------| --------------------------------|-------------------|------------------| --------------------------------|-------------------|------------------| --------------------------------|-------------------|------------------| --------------------------1-----|--5----------------|------------------| --4--3--1-----3-----4--3--------|--5----------------|------------------| --------------------------------|--3----------------|------------------| -------------------|------------------|-------------------|------------------| -------------------|------------------|-------------------|------------------| --3----------------|------------------|-------------------|------------------| --3----------------|------------------|--5----------------|------------------| --1----------------|------------------|--5----------------|------------------| -------------------|------------------|--3----------------|------------------| -------------------|------------------|---------------------| -------------------|------------------|---------------------| --3----------------|------------------|--5-------5----------| --3----------------|------------------|--5-------5----------| --1----------------|------------------|--3-------3----------| -------------------|------------------|---------------------| ---------------------------|-----------------------| ---------------------------|-----------------------| --6-----10-----9-----6-----|--5------5----3--5-----| --6-----10-----9-----6-----|--5------5----3--5-----| --4-----8------7-----4-----|--3------3----1--3-----| ---------------------------|-----------------------| --------------------------------|---------------------| --------------------------------|---------------------| --------------------------------|--5-------5----------| --------------------------1-----|--5-------5----------| --4--3--1-----3-----4--3--------|--3-------3----------| --------------------------------|---------------------| ---------------------------|-----------------------| ---------------------------|-----------------------| --6-----10-----9-----6-----|--5------5----3--5-----| --6-----10-----9-----6-----|--5------5----3--5-----| --4-----8------7-----4-----|--3------3----1--3-----| ---------------------------|-----------------------| --------------------------------|-------------------|------------------| --------------------------------|-------------------|------------------| --------------------------------|-------------------|------------------| --------------------------1-----|--2----------------|------------------| --4--3--1-----3-----4--3--------|--2----------------|------------------| --------------------------------|--0----------------|------------------| -------------------|-------------------|-------------------|------------------| -------------------|-------------------|-------------------|------------------| -------------------|-------------------|-------------------|------------------| --3----------------|--5----------------|--2----------------|------------------| --3----------------|--5----------------|--2----------------|------------------| --1----------------|--3----------------|--0----------------|------------------| -------------------|-------------------|-------------------|------------------| -------------------|-------------------|-------------------|------------------| -------------------|--2----------------|-------------------|------------------| --5----------------|--2----------------|--2----------------|------------------| --5----------------|--0----------------|--2----------------|------------------| --3----------------|-------------------|--0----------------|------------------| -------------------|-------------------|-------------------|------------------| -------------------|-------------------|-------------------|------------------| -------------------|-------------------|-------------------|------------------| --3----------------|--5----------------|--2----------------|------------------| --3----------------|--5----------------|--2----------------|------------------| --1----------------|--3----------------|--0----------------|------------------| -------------------|-------------------|---------------------| -------------------|-------------------|---------------------| -------------------|--2----------------|--7---------------7--| --5----------------|--2----------------|--7---------------7--| --5----------------|--0----------------|--5---------------5--| --3----------------|-------------------|---------------------| ----------------------|---------------------|---------------------| ----------------------|---------------------|---------------------| --3-----------5----5--|--7---------------7--|--3---------5--------| --3-----------5----5--|--7---------------7--|--3---------5--------| --1-----------3----3--|--5---------------5--|--1---------3--------| ----------------------|---------------------|---------------------| --------------------|----------------------|---------------------| --------------------|----------------------|---------------------| --7--------------7--|--3-----------5----5--|--7---------------7--| --7--------------7--|--3-----------5----5--|--7---------------7--| --5--------------5--|--1-----------3----3--|--5---------------5--| --------------------|----------------------|---------------------| ---------------------|-------------------|-------------------| ---------------------|-------------------|-------------------| --3---------5--------|--7----------------|--3----------------| --3---------5--------|--7----------------|--3----------------| --1---------3--------|--5----------------|--1----------------| ---------------------|-------------------|-------------------| -------------------|--------------------|-------------------| -------------------|--------------------|-------------------| --5----------------|--3--------2--------|--7----------------| --5----------------|--3--------2--------|--7----------------| --3----------------|--1--------0--------|--5----------------| -------------------|--------------------|-------------------| -------------------|-------------------|--------------------| -------------------|-------------------|--------------------| --5----------------|-------------------|--5--------5--------| --5----------------|--5----------------|--5--------5--------| --3----------------|--5----------------|--3--------3--------| -------------------|--3----------------|--------------------| --------------------------------------|--------------------------------------| --------------------------------------|--------------------------------------| --7--------7--------7--------7--------|--3--------3--------3--------3--------| --7--------7--------7--------7--------|--3--------3--------3--------3--------| --5--5--5--5--5--5--5--5--5--5--5--5--|--1--1--1--1--1--1--1--1--1--1--1--1--| --------------------------------------|--------------------------------------| --------------------------------------|--------------------------------------| --------------------------------------|--------------------------------------| --5--------5--------5--------5--------|--3--------3--------2--------2--------| --5--------5--------5--------5--------|--3--------3--------2--------2--------| --3--3--3--3--3--3--3--3--3--3--3--3--|--1--1--1--1--1--1--0--0--0--0--0--0--| --------------------------------------|--------------------------------------| --------------------------------------|--------------------------------------| --------------------------------------|--------------------------------------| --7--------7--------7--------7--------|--5--------5--------5--------5--------| --7--------7--------7--------7--------|--5--------5--------5--------5--------| --5--5--5--5--5--5--5--5--5--5--5--5--|--3--3--3--3--3--3--3--3--3--3--3--3--| --------------------------------------|--------------------------------------| -------------------|--------------------|-------------------| -------------------|--------------------|-------------------| -------------------|-----------5--------|--7----------------| --5----------------|--3--------5--------|--7----------------| --5----------------|--3--------3--------|--5----------------| --3----------------|--1-----------------|-------------------| ------------------------|-------------------|-------------------| ------------------------|-------------------|-------------------| --7-----2-----7---------|--3----------------|-------------------| --7-----2-----7---------|--3----------------|--3----------------| --5-----0-----5---------|--1----------------|--3----------------| ------------------------|-------------------|--1----------------| -------------------|--------------------|-------------------| -------------------|--------------------|-------------------| --5----------------|--7--------5--------|--3----------------| --5----------------|--7--------5--------|--3----------------| --3----------------|--5--------3--------|--1----------------| -------------------|--------------------|-------------------| -------------------|-------------------|-----------------------| -------------------|-------------------|-----------------------| -------------------|-------------------|--7--------7-----5-----| --3----------------|--5----------------|--7--------7-----5-----| --3----------------|--5----------------|--5--------5-----3-----| --1----------------|--3----------------|-----------------------| -------------------|-------------------|-------------------| -------------------|-------------------|-------------------| --3----------------|-------------------|--5----------------| --3----------------|--3----------------|--5----------------| --1----------------|--3----------------|--3----------------| -------------------|--1----------------|-------------------|

    лекарство в аптеке
    список лекарств






    О сайтеАккордыХит-парадПоискУроки ФорумыИщу песню
    ПрограммыСвежачок-сПодпискаСтатьи
    Яндекс.Метрика