Табулатура Nightwish | Sacrament Of Wilderness гитара табулатуры уроки тексты песен Nightwish текст lyrics песня аккорды песни ноты нота электрогитара струна  
   А Б В Г Д Е Ж З И К Л М Н О П Р С Т У Ф Х Ч Ш Ы Э Ю Я       Разные песни
1-9 A B C D E F G H I J K L M N O P Q R S T U V W Y Z      Все исполнители in english

    



группа Nightwish, Табулатура песни Sacrament Of Wilderness

Работа в Европе для граждан РФ, Украины, СНГ

  • минимальная зарплата $500.
  • виза и контракт на полгода, возможно продление
  • проживание оплачивает работодатель
  • нужен только загранпаспорт
  • оформление 190 €
  • данное предложение - отличная возможность эмигрировать в Европу и закрепиться здесь навсегда.

  • Мы свяжемся с Вами по WhatsApp или Viber и ответим на любые вопросы.
    на нашем сайте можно почитать подробнее »

    Группа: Nightwish - другие аккорды (414),   о группе (12 статей),   диски (6),   фотографии (25)
    Табулатура песни: Sacrament Of Wilderness
    Просмотров: 867
    Подобрал: Forever (forever@akkords.ru)




        
                                Sacrament Of Wilderness                             
    
                                                                           Tuomas H.
    Emppu (Lead Guitar)
    
                                                                                   
    E||------------------|------------------|------------------|------------------|
    B||------------------|------------------|------------------|------------------|
    G||------------------|------------------|------------------|------------------|
    D||------------------|------------------|------------------|------------------|
    A||------------------|------------------|------------------|------------------|
    E||------------------|------------------|------------------|------------------|
    
                                                                                
    ------------------|------------------|------------------|------------------|
    ------------------|------------------|------------------|------------------|
    ------------------|------------------|------------------|------------------|
    ------------------|------------------|------------------|------------------|
    ------------------|------------------|------------------|------------------|
    ------------------|------------------|------------------|------------------|
    
                                                                                
    ------------------|------------------|------------------|------------------|
    ------------------|------------------|------------------|------------------|
    ------------------|------------------|------------------|------------------|
    ------------------|------------------|------------------|------------------|
    ------------------|------------------|------------------|------------------|
    ------------------|------------------|------------------|------------------|
    
                                                                                
    ------------------|------------------|------------------|------------------|
    ------------------|------------------|------------------|------------------|
    ------------------|------------------|------------------|------------------|
    ------------------|------------------|------------------|------------------|
    ------------------|------------------|------------------|------------------|
    ------------------|------------------|------------------|------------------|
    
                                                          
    --5h2---4h2---7h2---5h2---|--5h2---4h2---7h2---5h2---|
    --------------------------|--------------------------|
    --------------------------|--------------------------|
    --------------------------|--------------------------|
    --------------------------|--------------------------|
    --------------------------|--------------------------|
    
                                                            
    --9h5---7h5---10h5---9h5---|--9h5---7h5---10h5---9h5---|
    ---------------------------|---------------------------|
    ---------------------------|---------------------------|
    ---------------------------|---------------------------|
    ---------------------------|---------------------------|
    ---------------------------|---------------------------|
    
                                                                       
    --10h7---9h7---12h7---10h7---|--9h10h9h7--------------------------|
    -----------------------------|-----------10h9h7h6h7h6-------------|
    -----------------------------|------------------------7h6h4-------|
    -----------------------------|------------------------------7h6h4-|
    -----------------------------|------------------------------------|
    -----------------------------|------------------------------------|
    
                                                                      
    ---------------------------|------------------|------------------|
    ---------------------------|------------------|------------------|
    ---------------------------|------------------|------------------|
    --3h4h3h0------------------|------------------|------------------|
    ----------4h2h0------------|------------------|------------------|
    ----------------4-2~-------|------------------|------------------|
    
                                                                                
    ------------------|------------------|------------------|------------------|
    ------------------|------------------|------------------|------------------|
    ------------------|------------------|------------------|------------------|
    ------------------|------------------|------------------|------------------|
    ------------------|------------------|------------------|------------------|
    ------------------|------------------|------------------|------------------|
    
                                                                                
    ------------------|------------------|------------------|------------------|
    ------------------|------------------|------------------|------------------|
    ------------------|------------------|------------------|------------------|
    ------------------|------------------|------------------|------------------|
    ------------------|------------------|------------------|------------------|
    ------------------|------------------|------------------|------------------|
    
                                                                                
    ------------------|------------------|------------------|------------------|
    ------------------|------------------|------------------|------------------|
    ------------------|------------------|------------------|------------------|
    ------------------|------------------|------------------|------------------|
    ------------------|------------------|------------------|------------------|
    ------------------|------------------|------------------|------------------|
    
                                                                                
    ------------------|------------------|------------------|------------------|
    ------------------|------------------|------------------|------------------|
    ------------------|------------------|------------------|------------------|
    ------------------|------------------|------------------|------------------|
    ------------------|------------------|------------------|------------------|
    ------------------|------------------|------------------|------------------|
    
                                                                     
    ------------------|------------------|--5h2---4h2---7h2---5h2---|
    ------------------|------------------|--------------------------|
    ------------------|------------------|--------------------------|
    ------------------|------------------|--------------------------|
    ------------------|------------------|--------------------------|
    ------------------|------------------|--------------------------|
    
                                                           
    --5h2---4h2---7h2---5h2---|--9h5---7h5---10h5---9h5---|
    --------------------------|---------------------------|
    --------------------------|---------------------------|
    --------------------------|---------------------------|
    --------------------------|---------------------------|
    --------------------------|---------------------------|
    
                                                              
    --9h5---7h5---10h5---9h5---|--10h7---9h7---12h7---10h7---|
    ---------------------------|-----------------------------|
    ---------------------------|-----------------------------|
    ---------------------------|-----------------------------|
    ---------------------------|-----------------------------|
    ---------------------------|-----------------------------|
    
                                                                               
    --9h10h9h7--------------------------|------------------|------------------|
    -----------10h9h7h6h7h6-------------|------------------|------------------|
    ------------------------7h6h4-------|------------------|------------------|
    ------------------------------7h6h4-|--3h4h3h0---------|------------------|
    ------------------------------------|----------4h2h0---|------------------|
    ------------------------------------|----------------4-|------------------|
    
                                                                                
    ------------------|------------------|------------------|------------------|
    ------------------|------------------|------------------|------------------|
    ------------------|------------------|------------------|------------------|
    ------------------|------------------|------------------|------------------|
    ------------------|------------------|------------------|------------------|
    ------------------|------------------|------------------|------------------|
    
                                                                                
    ------------------|------------------|------------------|------------------|
    ------------------|------------------|------------------|------------------|
    ------------------|------------------|------------------|------------------|
    ------------------|------------------|------------------|------------------|
    ------------------|------------------|------------------|------------------|
    ------------------|------------------|------------------|------------------|
    
                                                                                
    ------------------|------------------|------------------|------------------|
    ------------------|------------------|------------------|------------------|
    ------------------|------------------|------------------|------------------|
    ------------------|------------------|------------------|------------------|
    ------------------|------------------|------------------|------------------|
    ------------------|------------------|------------------|------------------|
    
                                                                                
    ------------------|------------------|------------------|------------------|
    ------------------|------------------|------------------|------------------|
    ------------------|------------------|------------------|------------------|
    ------------------|------------------|------------------|------------------|
    ------------------|------------------|------------------|------------------|
    ------------------|------------------|------------------|------------------|
    
                                                                                
    ------------------|------------------|------------------|------------------|
    ------------------|------------------|------------------|------------------|
    ------------------|------------------|------------------|------------------|
    ------------------|------------------|------------------|------------------|
    ------------------|------------------|------------------|------------------|
    ------------------|------------------|------------------|------------------|
    
                                                                                
    ------------------|------------------|------------------|------------------|
    ------------------|------------------|------------------|------------------|
    ------------------|------------------|------------------|------------------|
    ------------------|------------------|------------------|------------------|
    ------------------|------------------|------------------|------------------|
    ------------------|------------------|------------------|------------------|
    
                                                                                
    ------------------|------------------|------------------|------------------|
    ------------------|------------------|------------------|------------------|
    ------------------|------------------|------------------|------------------|
    ------------------|------------------|------------------|------------------|
    ------------------|------------------|------------------|------------------|
    ------------------|------------------|------------------|------------------|
    
                                                                                
    ------------------|------------------|------------------|------------------|
    ------------------|------------------|------------------|------------------|
    ------------------|------------------|------------------|------------------|
    ------------------|------------------|------------------|------------------|
    ------------------|------------------|------------------|------------------|
    ------------------|------------------|------------------|------------------|
    
                                                                                
    
    Узнай ВСЕ о своем друге в ВК или FB
    ------------------|------------------|------------------|------------------| ------------------|------------------|------------------|------------------| ------------------|------------------|------------------|------------------| ------------------|------------------|------------------|------------------| ------------------|------------------|------------------|------------------| ------------------|------------------|------------------|------------------| ------------------|------------------|------------------| ------------------|------------------|------------------| ------------------|------------------|------------------| ------------------|------------------|------------------| ------------------|------------------|------------------| ------------------|------------------|------------------| ------------------------------|-----------------------|-------------------| ------------------------------|-----------------------|-------------------| ------------------------------|--------2--------------|--7b---------------| --------------2-4~---------2--|------2---4~-----------|-------------------| ----0--2-3-4------------------|--2-4------------------|-------------------| --2---------------------------|-----------------------|-------------------| ----------------------------|-----------------------------|--2/------7~-------| ----------------------------|-----------------------------|-------------------| --2~------------------------|-----------------------------|-------------------| ----------------------0---0-|--2-4-4-2-4-4-2-4-4-2-2------|-------------------| ------------------0-2---2---|-----------------------------|-------------------| ------------1-2-3-----------|-----------------------------|-------------------| --9h10h9h7--------------------------|---------------------------| -----------10h9h7h6h7h6-------------|---------------------------| ------------------------7h6h4-------|---------------------------| ------------------------------7h6h4-|--3h4h3h0------------------| ------------------------------------|----------4h2h0------------| ------------------------------------|----------------4-2~-------| -------------------------------|--------------------------| -------------------------------|--------------------------| -------------------------------|--------------------------| --7----------6------7------9---|------11------------------| --9--x-x-x-x-7--x-x-9--x-x-11--|--x-x-12--x-x-7--9~-------| -------------------------------|--------------------------| -------------------------------|---------------------------------| -------------------------------|---------------------------------| -------------------------------|---------------------9-11~-------| --7----------6------7------9---|-------------9-11-12-------------| --9--x-x-x-x-7--x-x-9--x-x-11--|-----9-11-12---------------------| -------------------------------|--12-----------------------------| -------------------------------|--------------------------| -------------------------------|--------------------------| -------------------------------|--------------------------| --7----------6------7------9---|------11------------------| --9--x-x-x-x-7--x-x-9--x-x-11--|--x-x-12--x-x-7--9~-------| -------------------------------|--------------------------| -------------------------------|---------------------------------| -------------------------------|---------------------------------| -------------------------------|---------------------9-11~-------| --7----------6------7------9---|-------------9-11-12-------------| --9--x-x-x-x-7--x-x-9--x-x-11--|-----9-11-12---------------------| -------------------------------|--12-----------------------------| ------------------|------------------|------------------|------------------| ------------------|------------------|------------------|------------------| ------------------|------------------|------------------|------------------| ------------------|------------------|------------------|------------------| ------------------|------------------|------------------|------------------| ------------------|------------------|------------------|------------------| ------------------|------------------|------------------|------------------| ------------------|------------------|------------------|------------------| ------------------|------------------|------------------|------------------| ------------------|------------------|------------------|------------------| ------------------|------------------|------------------|------------------| ------------------|------------------|------------------|------------------| ------------------|------------------|-------------------------------| ------------------|------------------|-------------------------------| ------------------|------------------|-------------------------------| ------------------|------------------|--7----------6------7------9---| ------------------|------------------|--9--x-x-x-x-7--x-x-9--x-x-11--| ------------------|------------------|-------------------------------| --------------------------|-------------------------------| --------------------------|-------------------------------| --------------------------|-------------------------------| ------11------------------|--7----------6------7------9---| --x-x-12--x-x-7--9~-------|--9--x-x-x-x-7--x-x-9--x-x-11--| --------------------------|-------------------------------| ---------------------------------|-------------------------------| ---------------------------------|-------------------------------| ---------------------9-11~-------|-------------------------------| -------------9-11-12-------------|--7----------6------7------9---| -----9-11-12---------------------|--9--x-x-x-x-7--x-x-9--x-x-11--| --12-----------------------------|-------------------------------| --------------------------|-------------------------------| --------------------------|-------------------------------| --------------------------|-------------------------------| ------11------------------|--7----------6------7------9---| --x-x-12--x-x-7--9~-------|--9--x-x-x-x-7--x-x-9--x-x-11--| --------------------------|-------------------------------| ---------------------------------|------------------|------------------| ---------------------------------|------------------|------------------| ---------------------9-11~-------|------------------|------------------| -------------9-11-12-------------|------------------|------------------| -----9-11-12---------------------|------------------|------------------| --12-----------------------------|------------------|------------------| ------------------|------------------|------------------|------------------| ------------------|------------------|------------------|------------------| ------------------|------------------|------------------|------------------| ------------------|------------------|------------------|------------------| ------------------|------------------|------------------|------------------| ------------------|------------------|------------------|------------------| ------------------|------------------|------------------|------------------| ------------------|------------------|------------------|------------------| ------------------|------------------|------------------|------------------| ------------------|------------------|------------------|------------------| ------------------|------------------|------------------|------------------| ------------------|------------------|------------------|------------------| ------------------|------------------|------------------|------------------| ------------------|------------------|------------------|------------------| ------------------|------------------|------------------|------------------| ------------------|------------------|------------------|------------------| ------------------|------------------|------------------|------------------| ------------------|------------------|------------------|------------------| ------------------|------------------|------------------|------------------| ------------------|------------------|------------------|------------------| ------------------|------------------|------------------|------------------| ------------------|------------------|------------------|------------------| ------------------|------------------|------------------|------------------| ------------------|------------------|------------------|------------------| ------------------|------------------|------------------|------------------| ------------------|------------------|------------------|------------------| ------------------|------------------|------------------|------------------| ------------------|------------------|------------------|------------------| ------------------|------------------|------------------|------------------| ------------------|------------------|------------------|------------------| ------------------|------------------| ------------------|------------------| ------------------|------------------| ------------------|------------------| ------------------|------------------| ------------------|------------------| --12-10-------------------------------------------------|-------------------| --------13-12-10-12-10----------------------------------|-------------------| -----------------------13-------------------------------|-------------------| --------------------------12-10-------------------------|-------------------| --------------------------------12-10-------------------|-------------------| --------------------------------------12-10-7-5-3-------|--5----------------| ------------------|------------------|| ------------------|------------------|| ------------------|------------------|| ------------------|------------------|| ------------------|------------------|| ------------------|------------------||

    найти лекарство
    список лекарств

    купить бальное платье на девочку

    ale-alenka.ru

    Шлифовка стекол и зеркал

    Резка-обработка стекла и зеркал по вашим размерам. Требуется резчик стекла

    ecosteklo.ru








    О сайтеАккордыХит-парадПоискУроки ФорумыИщу песню
    ПрограммыСвежачок-сПодпискаСтатьи
    Яндекс.Метрика