Табулатура Nightwish | Sacrament Of Wilderness  (2) гитара табулатуры уроки тексты песен Nightwish текст lyrics песня аккорды песни ноты нота электрогитара струна  
   А Б В Г Д Е Ж З И К Л М Н О П Р С Т У Ф Х Ч Ш Ы Э Ю Я       Разные песни
1-9 A B C D E F G H I J K L M N O P Q R S T U V W Y Z      Все исполнители in english

    



группа Nightwish, Табулатура песни Sacrament Of Wilderness (2)

Работа в Европе для граждан РФ, Украины, СНГ

  • минимальная зарплата $500.
  • виза и контракт на полгода, возможно продление
  • проживание оплачивает работодатель
  • нужен только загранпаспорт
  • оформление 190 €
  • данное предложение - отличная возможность эмигрировать в Европу и закрепиться здесь навсегда.

  • Мы свяжемся с Вами по WhatsApp или Viber и ответим на любые вопросы.
    на нашем сайте можно почитать подробнее »

    Группа: Nightwish - другие аккорды (414),   о группе (12 статей),   диски (6),   фотографии (25)
    Табулатура песни: Sacrament Of Wilderness (2)
    Просмотров: 1193
    Подобрал: Forever (forever@akkords.ru)




        
                                Sacrament Of Wilderness                             
    
                                                                           Tuomas H.
    Emppu (Rhythm Guitar)
    
                                                                           
    E||-----------------------|-------------------|-----------------------|
    B||-----------------------|-------------------|-----------------------|
    G||-----------------------|----------7/-------|-----------------------|
    D||--4-4-4-4-4------------|----------7/-------|--4-4-4-4-4------------|
    A||--4-4-4-4-4------------|----------5/-------|--4-4-4-4-4------------|
    E||--2-2-2-2-2------------|-------------------|--2-2-2-2-2------------|
    
                                                                     
    ---------------------|----------------------|-------------------|
    ---------------------|----------------------|-------------------|
    -------------2----4--|----------------------|----------7/-------|
    ----------4--2----4--|--4-4-4-4-------------|----------7/-------|
    ----------4--0----2--|--4-4-4-4-------------|----------5/-------|
    ----------2----------|--2-2-2-2-------------|-------------------|
    
                                                                            
    ----------------------|--------------------|---------------------------|
    ----------------------|--------------------|---------------------------|
    ----------------------|------------2----4--|---------------------------|
    --4-4-4-4-------------|------------2----4--|--4----4--4--4-4-4--4--4-4-|
    --4-4-4-4-------------|------------0----2--|--4----4--4--4-4-4--4--4-4-|
    --2-2-2-2-------------|--------------------|--2----2--2--2-2-2--2--2-2-|
    
                                                                                  
    -----------------------|---------------------------|-------------------------|
    -----------------------|---------------------------|-------------------------|
    --------------7/-------|---------------------------|-----------------2----4--|
    --4----4--4-4-7/-------|--4----4--4--4-4-4--4--4-4-|--4----4--4-4-4--2----4--|
    --4----4--4-4-5/-------|--4----4--4--4-4-4--4--4-4-|--4----4--4-4-4--0----2--|
    --2----2--2-2----------|--2----2--2--2-2-2--2--2-2-|--2----2--2-2-2----------|
    
                                                                                    
    ---------------------------|-----------------------|---------------------------|
    ---------------------------|-----------------------|---------------------------|
    ---------------------------|--------------7/-------|---------------------------|
    --4----4--4--4-4-4--4--4-4-|--4----4--4-4-7/-------|--4----4--4--4-4-4--4--4-4-|
    --4----4--4--4-4-4--4--4-4-|--4----4--4-4-5/-------|--4----4--4--4-4-4--4--4-4-|
    --2----2--2--2-2-2--2--2-2-|--2----2--2-2----------|--2----2--2--2-2-2--2--2-2-|
    
                                                                                   
    -------------------|-------------------|------------------|-------------------|
    -------------------|-------------------|------------------|-------------------|
    -------------------|-------------------|------------------|--2----------------|
    --4----------------|--4----------------|------------------|--2----------------|
    --4----------------|--4----------------|------------------|--0----------------|
    --2----------------|--2----------------|------------------|-------------------|
    
                                                                                 
    ------------------|-------------------|------------------|------------------|
    ------------------|-------------------|------------------|------------------|
    ------------------|--4----------------|------------------|------------------|
    ------------------|--4----------------|------------------|------------------|
    ------------------|--2----------------|------------------|------------------|
    ------------------|-------------------|------------------|------------------|
    
                                                            
    ---------------------------|---------------------------|
    ---------------------------|---------------------------|
    ---------------------------|---------------------------|
    --4------------------------|--4------------------------|
    --4------------------------|--4------------------------|
    --2----2--2--2-2-2--2--2-2-|--2----2--2--2-2-2--2--2-2-|
    
                                                         
    --------------------------|-------------------------|
    --------------------------|-------------------------|
    --------------------------|-------------------------|
    -----4--------------------|--------------------2----|
    --------------4--------4--|--------------------2----|
    --2-----2--2-----2--2--2--|--2--2--2--2--2--2--0----|
    
                                                            
    ---------------------------|---------------------------|
    ---------------------------|---------------------------|
    ---------------------------|------------------------6--|
    --4----4--4--4-4-4--4--4-4-|--4----4--4-4-4-4-4--4--6--|
    --4----4--4--4-4-4--4--4-4-|--4----4--4-4-4-4-4--4--4--|
    --2----2--2--2-2-2--2--2-2-|--2----2--2-2-2-2-2--2-----|
    
                                                           
    ---------------------------|--------------------------|
    ---------------------------|--------------------------|
    --7----7--7--7-7-7--7--7-7-|--7----7--7-7-7--7-7-6----|
    --7----7--7--7-7-7--7--7-7-|--7----7--7-7-7--7-7-6----|
    --5----5--5--5-5-5--5--5-5-|--5----5--5-5-5--5-5-4----|
    ---------------------------|--------------------------|
    
                                                                                
    ---------------------------|---------------------------|-------------------|
    ---------------------------|---------------------------|-------------------|
    --4----4--4--4-4-4--4--4-4-|--4----4--4--4-4-4--4--4-4-|-------------------|
    --4----4--4--4-4-4--4--4-4-|--4----4--4--4-4-4--4--4-4-|--4----------------|
    --2----2--2--2-2-2--2--2-2-|--2----2--2--2-2-2--2--2-2-|--4----------------|
    ---------------------------|---------------------------|--2----------------|
    
                                                                                
    -------------------|---------------------------|---------------------------|
    -------------------|---------------------------|---------------------------|
    -------------------|---------------------------|------------------------6--|
    --2----------------|--4----4--4--4-4-4--4--4-4-|--4----4--4-4-4-4-4--4--6--|
    --2----------------|--4----4--4--4-4-4--4--4-4-|--4----4--4-4-4-4-4--4--4--|
    --0----------------|--2----2--2--2-2-2--2--2-2-|--2----2--2-2-2-2-2--2-----|
    
                                                           
    ---------------------------|--------------------------|
    ---------------------------|--------------------------|
    --7----7--7--7-7-7--7--7-7-|--7----7--7-7-7--7-7-6----|
    --7----7--7--7-7-7--7--7-7-|--7----7--7-7-7--7-7-6----|
    --5----5--5--5-5-5--5--5-5-|--5----5--5-5-5--5-5-4----|
    ---------------------------|--------------------------|
    
                                                                                
    ---------------------------|---------------------------|-------------------|
    ---------------------------|---------------------------|-------------------|
    --4----4--4--4-4-4--4--4-4-|--4----4--4--4-4-4--4--4-4-|-------------------|
    --4----4--4--4-4-4--4--4-4-|--4----4--4--4-4-4--4--4-4-|--4----------------|
    --2----2--2--2-2-2--2--2-2-|--2----2--2--2-2-2--2--2-2-|--4----------------|
    ---------------------------|---------------------------|--2----------------|
    
                                                                                   
    -------------------|-------------------|------------------|-------------------|
    -------------------|-------------------|------------------|-------------------|
    -------------------|-------------------|------------------|--2----------------|
    --2----------------|--4----------------|------------------|--2----------------|
    --2----------------|--4----------------|------------------|--0----------------|
    --0----------------|--2----------------|------------------|-------------------|
    
                                                                         
    ------------------|-------------------|------------------|----------|
    ------------------|-------------------|------------------|----------|
    ------------------|--4----------------|------------------|----------|
    ------------------|--4----------------|------------------|----------|
    ------------------|--2----------------|------------------|----------|
    ------------------|-------------------|------------------|----------|
    
                                                            
    ---------------------------|---------------------------|
    ---------------------------|---------------------------|
    ---------------------------|------------------------6--|
    --4----4--4--4-4-4--4--4-4-|--4----4--4-4-4-4-4--4--6--|
    --4----4--4--4-4-4--4--4-4-|--4----4--4-4-4-4-4--4--4--|
    --2----2--2--2-2-2--2--2-2-|--2----2--2-2-2-2-2--2-----|
    
                                                           
    ---------------------------|--------------------------|
    ---------------------------|--------------------------|
    --7----7--7--7-7-7--7--7-7-|--7----7--7-7-7--7-7-6----|
    --7----7--7--7-7-7--7--7-7-|--7----7--7-7-7--7-7-6----|
    --5----5--5--5-5-5--5--5-5-|--5----5--5-5-5--5-5-4----|
    ---------------------------|--------------------------|
    
                                                                                
    ---------------------------|---------------------------|-------------------|
    ---------------------------|---------------------------|-------------------|
    --4----4--4--4-4-4--4--4-4-|--4----4--4--4-4-4--4--4-4-|-------------------|
    --4----4--4--4-4-4--4--4-4-|--4----4--4--4-4-4--4--4-4-|--4----------------|
    --2----2--2--2-2-2--2--2-2-|--2----2--2--2-2-2--2--2-2-|--4----------------|
    ---------------------------|---------------------------|--2----------------|
    
                                                                                
    -------------------|---------------------------|---------------------------|
    -------------------|---------------------------|---------------------------|
    -------------------|---------------------------|------------------------6--|
    --2----------------|--4----4--4--4-4-4--4--4-4-|--4----4--4-4-4-4-4--4--6--|
    --2----------------|--4----4--4--4-4-4--4--4-4-|--4----4--4-4-4-4-4--4--4--|
    --0----------------|--2----2--2--2-2-2--2--2-2-|--2----2--2-2-2-2-2--2-----|
    
                                                           
    ---------------------------|--------------------------|
    ---------------------------|--------------------------|
    --7----7--7--7-7-7--7--7-7-|--7----7--7-7-7--7-7-6----|
    --7----7--7--7-7-7--7--7-7-|--7----7--7-7-7--7-7-6----|
    --5----5--5--5-5-5--5--5-5-|--5----5--5-5-5--5-5-4----|
    ---------------------------|--------------------------|
    
                                                                                
    ---------------------------|---------------------------|-------------------|
    ---------------------------|---------------------------|-------------------|
    --4----4--4--4-4-4--4--4-4-|--4----4--4--4-4-4--4--4-4-|-------------------|
    --4----4--4--4-4-4--4--4-4-|--4----4--4--4-4-4--4--4-4-|--4----------------|
    --2----2--2--2-2-2--2--2-2-|--2----2--2--2-2-2--2--2-2-|--4----------------|
    ---------------------------|---------------------------|--2----------------|
    
                                                           
    -------------------|----------------------------------|
    -------------------|----------------------------------|
    -------------------|----------------------------------|
    --2----------------|----------------------------------|
    --2----------------|----------------------------------|
    --0----------------|--2-2-2-2-2-2-2-2-2-2-2-2-2-2-2-2-|
    
                                                                          
    ----------------------------------|----------------------------------|
    ----------------------------------|----------------------------------|
    ----------------------------------|----------------------------------|
    ----------------------------------|----------------------------------|
    ----------------------0-2---0-2-4-|--5-5-5-5-5-5-5-5-5-5-5-5-5-5-5-5-|
    --2-2-2-2-2-2-2-2-2-4-----4-------|----------------------------------|
    
                                                                          
    ----------------------------------|----------------------------------|
    ----------------------------------|----------------------------------|
    ----------------------------------|----------------------------------|
    ----------------------------------|----------------------------------|
    --5h7-7-7-7-7-7-7-5h7-7-7-7-7-7-7-|----------------------------------|
    ----------------------------------|--2-2-2-2-2-2-2-2-2-2-2-2-2-2-2-2-|
    
                                                                          
    ----------------------------------|----------------------------------|
    ----------------------------------|----------------------------------|
    ----------------------------------|----------------------------------|
    ----------------------------------|----------------------------------|
    ----------------------0-2---0-2-4-|--5-5-5-5-5-5-5-5-5-5-5-5-5-5-5-5-|
    --2-2-2-2-2-2-2-2-2-4-----4-------|----------------------------------|
    
                                                                          
    ----------------------------------|----------------------------------|
    ----------------------------------|----------------------------------|
    ----------------------------------|----------------------------------|
    ----------------------------------|----------------------------------|
    --7-5-4---5-4-----4---------------|----------------------------------|
    --------7-----7-5---7-5-4-7-5-4-2-|--2-2-2-2-2-2-2-2-2-2-2-2-2-2-2-2-|
    
                                                                          
    ----------------------------------|----------------------------------|
    ----------------------------------|----------------------------------|
    ----------------------------------|----------------------------------|
    ----------------------------------|----------------------------------|
    ----------------------0-2---0-2-4-|--5-5-5-5-5-5-5-5-5-5-5-5-5-5-5-5-|
    --2-2-2-2-2-2-2-2-2-4-----4-------|----------------------------------|
    
                                                                          
    
    Узнай ВСЕ о своем друге в ВК или FB
    ----------------------------------|----------------------------------| ----------------------------------|----------------------------------| ----------------------------------|----------------------------------| ----------------------------------|----------------------------------| --5h7-7-7-7-7-7-7-5h7-7-7-7-7-7-7-|----------------------------------| ----------------------------------|--2-2-2-2-2-2-2-2-2-2-2-2-2-2-2-2-| ----------------------------------|----------------------------------| ----------------------------------|----------------------------------| ----------------------------------|----------------------------------| ----------------------------------|----------------------------------| ----------------------0-2---0-2-4-|--5-5-5-5-5-5-5-5-5-5-5-5-5-5-5-5-| --2-2-2-2-2-2-2-2-2-4-----4-------|----------------------------------| ----------------------------------|---------------------------| ----------------------------------|---------------------------| ----------------------------------|---------------------------| ----------------------------------|--4----4--4--4-4-4--4--4-4-| --7-5-4---5-4-----4---------------|--4----4--4--4-4-4--4--4-4-| --------7-----7-5---7-5-4-7-5-4-2-|--2----2--2--2-2-2--2--2-2-| -----------------------|---------------------------|-------------------------| -----------------------|---------------------------|-------------------------| --------------7/-------|---------------------------|-----------------2----4--| --4----4--4-4-7/-------|--4----4--4--4-4-4--4--4-4-|--4----4--4-4-4--2----4--| --4----4--4-4-5/-------|--4----4--4--4-4-4--4--4-4-|--4----4--4-4-4--0----2--| --2----2--2-2----------|--2----2--2--2-2-2--2--2-2-|--2----2--2-2-2----------| ---------------------------|-----------------------|---------------------------| ---------------------------|-----------------------|---------------------------| ---------------------------|--------------7/-------|---------------------------| --4----4--4--4-4-4--4--4-4-|--4----4--4-4-7/-------|--4----4--4--4-4-4--4--4-4-| --4----4--4--4-4-4--4--4-4-|--4----4--4-4-5/-------|--4----4--4--4-4-4--4--4-4-| --2----2--2--2-2-2--2--2-2-|--2----2--2-2----------|--2----2--2--2-2-2--2--2-2-| -------------------------|--------------------------|------------------------| -------------------------|--------------------------|------------------------| -----------------2----4--|--------------------------|------------2---2---2---| --4----4--4-4-4--2----4--|--4-4-4----4-4-4----4-4---|--4-4-4-----2---2---2---| --4----4--4-4-4--0----2--|--4-4-4----4-4-4----4-4---|--4-4-4-----0---0---0---| --2----2--2-2-2----------|--2-2-2----2-2-2----2-2---|--2-2-2-----------------| --------------------------|------------------------|--------------------------| --------------------------|------------------------|--------------------------| --------------------------|------------2---2---2---|--------------------------| --4-4-4----4-4-4----4-4---|--4-4-4-----2---2---2---|--4-4-4----4-4-4----4-4---| --4-4-4----4-4-4----4-4---|--4-4-4-----0---0---0---|--4-4-4----4-4-4----4-4---| --2-2-2----2-2-2----2-2---|--2-2-2-----------------|--2-2-2----2-2-2----2-2---| ------------------------|--------------------------|------------------------| ------------------------|--------------------------|------------------------| ------------2---2---2---|--------------------------|------------2---2---2---| --4-4-4-----2---2---2---|--4-4-4----4-4-4----4-4---|--4-4-4-----2---2---2---| --4-4-4-----0---0---0---|--4-4-4----4-4-4----4-4---|--4-4-4-----0---0---0---| --2-2-2-----------------|--2-2-2----2-2-2----2-2---|--2-2-2-----------------| ----------------------------------|----------------------------------| ----------------------------------|----------------------------------| ----------------------------------|----------------------------------| ----------------------------------|----------------------------------| ----------------------------------|----------------------------------| --2-2-2-2-2-2-2-2-2-2-2-2-2-2-2-2-|--2-2-2-2-2-2-2-2-2-2-2-2-2-2-2-2-| ----------------------------------|----------------------------------| ----------------------------------|----------------------------------| ----------------------------------|----------------------------------| ----------------------------------|----------------------------------| ----------------------------------|----------------------------------| --2-2-2-2-2-2-2-2-2-2-2-2-2-2-2-2-|--2-2-2-2-2-2-2-2-2-2-2-2-2-2-2-2-| ----------------------------------|----------------------------------| ----------------------------------|----------------------------------| ----------------------------------|----------------------------------| ----------------------------------|----------------------------------| ----------------------------------|----------------------------------| --2-2-2-2-2-2-2-2-2-2-2-2-2-2-2-2-|--2-2-2-2-2-2-2-2-2-2-2-2-2-2-2-2-| ----------------------------------|----------------------------------| ----------------------------------|----------------------------------| ----------------------------------|----------------------------------| ----------------------------------|----------------------------------| ----------------------------------|----------------------------------| --2-2-2-2-2-2-2-2-2-2-2-2-2-2-2-2-|--2-2-2-2-2-2-2-2-2-2-2-2-2-2-2-2-| -------------------|--------------------|-------------------| -------------------|--------------------|-------------------| -------------------|-----------7--------|-------------------| --4----------------|--2--------7--------|--4----------------| --4----------------|--2--------5--------|--4----------------| --2----------------|--0-----------------|--2----------------| --------------------|-------------------|--------------------| --------------------|-------------------|--------------------| --2--------4--------|-------------------|-----------7--------| --2--------4--------|--4----------------|--2--------7--------| --0--------2--------|--4----------------|--2--------5--------| --------------------|--2----------------|--0-----------------| -------------------|--------------------|--------------------------| -------------------|--------------------|--------------------------| -------------------|--2--------4--------|--------------------------| --4----------------|--2--------4--------|--4-4-4----4-4-4----4-4---| --4----------------|--0--------2--------|--4-4-4----4-4-4----4-4---| --2----------------|--------------------|--2-2-2----2-2-2----2-2---| ------------------------|----------------------------------| ------------------------|----------------------------------| ------------2---2---2---|----------------------------------| --4-4-4-----2---2---2---|----------------------------------| --4-4-4-----0---0---0---|----------------------------------| --2-2-2-----------------|--2-2-2-2-2-2-2-2-2-2-2-2-2-2-2-2-| ----------------------------------|----------------------------------| ----------------------------------|----------------------------------| ----------------------------------|----------------------------------| ----------------------------------|----------------------------------| ----------------------------------|----------------------------------| --2-2-2-2-2-2-2-2-2-2-2-2-2-2-2-2-|--2-2-2-2-2-2-2-2-2-2-2-2-2-2-2-2-| ----------------------------------|----------------------------------| ----------------------------------|----------------------------------| ----------------------------------|----------------------------------| ----------------------------------|----------------------------------| ----------------------------------|----------------------------------| --2-2-2-2-2-2-2-2-2-2-2-2-2-2-2-2-|--2-2-2-2-2-2-2-2-2-2-2-2-2-2-2-2-| ----------------------------------|----------------------------------| ----------------------------------|----------------------------------| ----------------------------------|----------------------------------| ----------------------------------|----------------------------------| ----------------------------------|----------------------------------| --2-2-2-2-2-2-2-2-2-2-2-2-2-2-2-2-|--2-2-2-2-2-2-2-2-2-2-2-2-2-2-2-2-| ----------------------------------|----------------------------------| ----------------------------------|----------------------------------| ----------------------------------|----------------------------------| ----------------------------------|----------------------------------| ----------------------------------|----------------------------------| --2-2-2-2-2-2-2-2-2-2-2-2-2-2-2-2-|--2-2-2-2-2-2-2-2-2-2-2-2-2-2-2-2-| ----------------------------------|----------------------------------| ----------------------------------|----------------------------------| ----------------------------------|----------------------------------| ----------------------------------|----------------------------------| ----------------------0-2---0-2-4-|--5-5-5-5-5-5-5-5-5-5-5-5-5-5-5-5-| --2-2-2-2-2-2-2-2-2-4-----4-------|----------------------------------| ----------------------------------|----------------------------------| ----------------------------------|----------------------------------| ----------------------------------|----------------------------------| ----------------------------------|----------------------------------| --5h7-7-7-7-7-7-7-5h7-7-7-7-7-7-7-|----------------------------------| ----------------------------------|--2-2-2-2-2-2-2-2-2-2-2-2-2-2-2-2-| ----------------------------------|----------------------------------| ----------------------------------|----------------------------------| ----------------------------------|----------------------------------| ----------------------------------|----------------------------------| ----------------------0-2---0-2-4-|--5-5-5-5-5-5-5-5-5-5-5-5-5-5-5-5-| --2-2-2-2-2-2-2-2-2-4-----4-------|----------------------------------| ----------------------------------|-------------------|-------------------| ----------------------------------|-------------------|-------------------| ----------------------------------|--2----------------|--2----------------| ----------------------------------|--2----------------|--2----------------| --7-5-4---5-4-----4---------------|--0----------------|--0----------------| --------7-----7-5---7-5-4-7-5-4-2-|-------------------|-------------------| -------------------|-------------------|-------------------|-------------------| -------------------|-------------------|-------------------|-------------------| -------------------|-------------------|--2----------------|--2----------------| --3----------------|--5----------------|--2----------------|--2----------------| --3----------------|--5----------------|--0----------------|--0----------------| --1----------------|--3----------------|-------------------|-------------------| -------------------|-------------------|-------------------|-------------------| -------------------|-------------------|-------------------|-------------------| -------------------|-------------------|--2----------------|--2----------------| --3----------------|--5----------------|--2----------------|--2----------------| --3----------------|--5----------------|--0----------------|--0----------------| --1----------------|--3----------------|-------------------|-------------------| -------------------|-------------------|-------------------|-------------------| -------------------|-------------------|-------------------|-------------------| -------------------|-------------------|--2----------------|--2----------------| --3----------------|--5----------------|--2----------------|--2----------------| --3----------------|--5----------------|--0----------------|--0----------------| --1----------------|--3----------------|-------------------|-------------------| -------------------|-------------------|-------------------|-------------------| -------------------|-------------------|-------------------|-------------------| -------------------|-------------------|--2----------------|--------------2----| --3----------------|--5----------------|--2----------------|--------------2----| --3----------------|--5----------------|--0----------------|--------------0----| --1----------------|--3----------------|-------------------|-------------------| ------------------|------------------|| ------------------|------------------|| ------------------|------------------|| ------------------|------------------|| ------------------|------------------|| ------------------|------------------||

    лекарство в аптеке
    список лекарств

    Купить диагностическую карту в жуковском

    В продаже - карта, цены ниже! Неликвидные остатки

    euromotors-auto.ru








    О сайтеАккордыХит-парадПоискУроки ФорумыИщу песню
    ПрограммыСвежачок-сПодпискаСтатьи
    Яндекс.Метрика