Табулатура Nightwish | Astral Romance гитара табулатуры уроки тексты песен Nightwish текст lyrics песня аккорды песни ноты нота электрогитара струна  
   А Б В Г Д Е Ж З И К Л М Н О П Р С Т У Ф Х Ч Ш Ы Э Ю Я       Разные песни
1-9 A B C D E F G H I J K L M N O P Q R S T U V W Y Z      Все исполнители in english

    



группа Nightwish, Табулатура песни Astral Romance

Работа в Европе для граждан РФ, Украины, СНГ

  • минимальная зарплата $500.
  • виза и контракт на полгода, возможно продление
  • проживание оплачивает работодатель
  • нужен только загранпаспорт
  • оформление 190 €
  • данное предложение - отличная возможность эмигрировать в Европу и закрепиться здесь навсегда.

  • Мы свяжемся с Вами по WhatsApp или Viber и ответим на любые вопросы.
    на нашем сайте можно почитать подробнее »

    Группа: Nightwish - другие аккорды (414),   о группе (12 статей),   диски (6),   фотографии (25)
    Табулатура песни: Astral Romance
    Просмотров: 1035
    Подобрал: Forever (forever@akkords.ru)




        
                                    Astral Romance                                  
    
                                                                              
    Guitar 
    
                                                                                    
    E||-------------------|------------------|------------------|------------------|
    B||-------------------|------------------|------------------|------------------|
    G||-------------------|------------------|------------------|------------------|
    D||-------------------|------------------|------------------|------------------|
    A||--2----------------|------------------|------------------|------------------|
    E||--0----------------|------------------|------------------|------------------|
    
                                                                    
    --------------------|----------------------|-------------------|
    --------------------|----------------------|-------------------|
    --------------------|----------------------|-------------------|
    --------------5--4--|--2--------2--4--5----|-------------------|
    --------------3--2--|--0--------0--2--3----|--2----------------|
    --------------------|----------------------|--0----------------|
    
                                                                                  
    ------------------|-------------------|------------------|-------------------|
    ------------------|-------------------|------------------|-------------------|
    ------------------|-------------------|------------------|-------------------|
    ------------------|-------------------|------------------|--7----------------|
    ------------------|--2----------------|------------------|--5----------------|
    ------------------|--0----------------|------------------|-------------------|
    
                                                                    
    ------------------|---------------------|----------------------|
    ------------------|---------------------|----------------------|
    ------------------|---------------------|----------------------|
    ------------------|--5------------5--4--|--2--------2--4--5----|
    ------------------|--3------------3--2--|--0--------0--2--3----|
    ------------------|---------------------|----------------------|
    
                                                                                  
    -------------------|------------------|-------------------|------------------|
    -------------------|------------------|-------------------|------------------|
    -------------------|------------------|-------------------|------------------|
    -------------------|------------------|-------------------|------------------|
    --2----------------|------------------|--2----------------|------------------|
    --0----------------|------------------|--0----------------|------------------|
    
                                                                 
    -------------------|------------------|---------------------|
    -------------------|------------------|---------------------|
    -------------------|------------------|---------------------|
    --7----------------|------------------|--5------------5--4--|
    --5----------------|------------------|--3------------3--2--|
    -------------------|------------------|---------------------|
    
                                                                                  
    ----------------------|-------------------|------|------|------|------|------|
    ----------------------|-------------------|------|------|------|------|------|
    ----------------------|--9----------------|------|------|------|------|------|
    --2--------2--4--5----|-------------------|------|------|------|------|------|
    --0--------0--2--3----|--7~---------------|------|------|------|------|------|
    ----------------------|-------------------|------|------|------|------|------|
    
                                                                          
    ------|------|------|------|------|------|------|------|------|------|
    ------|------|------|------|------|------|------|------|------|------|
    ------|------|------|------|------|------|------|------|------|------|
    ------|------|------|------|------|------|------|------|------|------|
    ------|------|------|------|------|------|------|------|------|------|
    ------|------|------|------|------|------|------|------|------|------|
    
                                                                                 
    -------------------|------------------|------------------|------------------|
    -------------------|------------------|------------------|------------------|
    -------------------|------------------|------------------|------------------|
    --7----------------|------------------|------------------|------------------|
    --7----------------|------------------|------------------|------------------|
    --5----------------|------------------|------------------|------------------|
    
                                                                                 
    -------------------|------------------|------------------|------------------|
    -------------------|------------------|------------------|------------------|
    --7----------------|------------------|------------------|------------------|
    --7----------------|------------------|------------------|------------------|
    --5----------------|------------------|------------------|------------------|
    -------------------|------------------|------------------|------------------|
    
                                                                               
    ------------------|------|------|------|------|------|------|------|------|
    ------------------|------|------|------|------|------|------|------|------|
    ------------------|------|------|------|------|------|------|------|------|
    ------------------|------|------|------|------|------|------|------|------|
    ------------------|------|------|------|------|------|------|------|------|
    ------------------|------|------|------|------|------|------|------|------|
    
                                                                                 
    -------------------|------------------|------------------|------------------|
    -------------------|------------------|------------------|------------------|
    -------------------|------------------|------------------|------------------|
    --7----------------|------------------|------------------|------------------|
    --7----------------|------------------|------------------|------------------|
    --5----------------|------------------|------------------|------------------|
    
                                                                                 
    -------------------|------------------|------------------|------------------|
    -------------------|------------------|------------------|------------------|
    --7----------------|------------------|------------------|------------------|
    --7----------------|------------------|------------------|------------------|
    --5----------------|------------------|------------------|------------------|
    -------------------|------------------|------------------|------------------|
    
                                                                                
    ------------------|------------------|------------------|------------------|
    ------------------|------------------|------------------|------------------|
    ------------------|------------------|------------------|------------------|
    ------------------|------------------|------------------|------------------|
    ------------------|------------------|------------------|------------------|
    ------------------|------------------|------------------|------------------|
    
                                                                                
    ------------------|------------------|------------------|------------------|
    ------------------|------------------|------------------|------------------|
    ------------------|------------------|------------------|------------------|
    ------------------|------------------|------------------|------------------|
    ------------------|------------------|------------------|------------------|
    ------------------|------------------|------------------|------------------|
    
                                                                                
    ------------------|------------------|------------------|------------------|
    ------------------|------------------|------------------|------------------|
    ------------------|------------------|------------------|------------------|
    ------------------|------------------|------------------|------------------|
    ------------------|------------------|------------------|------------------|
    ------------------|------------------|------------------|------------------|
    
                                                                                
    ------------------|------------------|------------------|------------------|
    ------------------|------------------|------------------|------------------|
    ------------------|------------------|------------------|------------------|
    ------------------|------------------|------------------|------------------|
    ------------------|------------------|------------------|------------------|
    ------------------|------------------|------------------|------------------|
    
                                                                                
    ------------------|------------------|------------------|------------------|
    ------------------|------------------|------------------|------------------|
    ------------------|------------------|------------------|------------------|
    ------------------|------------------|------------------|------------------|
    ------------------|------------------|------------------|------------------|
    ------------------|------------------|------------------|------------------|
    
                                                                                
    ------------------|------------------|------------------|------------------|
    ------------------|------------------|------------------|------------------|
    ------------------|------------------|------------------|------------------|
    ------------------|------------------|------------------|------------------|
    ------------------|------------------|------------------|------------------|
    ------------------|------------------|------------------|------------------|
    
                                                                                
    ------------------|------------------|------------------|------------------|
    ------------------|------------------|------------------|------------------|
    ------------------|------------------|------------------|------------------|
    ------------------|------------------|------------------|------------------|
    ------------------|------------------|------------------|------------------|
    ------------------|------------------|------------------|------------------|
    
                                                                                
    ------------------|------------------|------------------|------------------|
    ------------------|------------------|------------------|------------------|
    ------------------|------------------|------------------|------------------|
    ------------------|------------------|------------------|------------------|
    ------------------|------------------|------------------|------------------|
    ------------------|------------------|------------------|------------------|
    
                                                                                
    ------------------|------------------|------------------|------------------|
    ------------------|------------------|------------------|------------------|
    ------------------|------------------|------------------|------------------|
    ------------------|------------------|------------------|------------------|
    ------------------|------------------|------------------|------------------|
    ------------------|------------------|------------------|------------------|
    
                                                                                
    ------------------|------------------|------------------|------------------|
    ------------------|------------------|------------------|------------------|
    ------------------|------------------|------------------|------------------|
    ------------------|------------------|------------------|------------------|
    ------------------|------------------|------------------|------------------|
    ------------------|------------------|------------------|------------------|
    
                                                                                
    ------------------|------------------|------------------|------------------|
    ------------------|------------------|------------------|------------------|
    ------------------|------------------|------------------|------------------|
    
    Узнай ВСЕ о своем друге в ВК или FB
    ------------------|------------------|------------------|------------------| ------------------|------------------|------------------|------------------| ------------------|------------------|------------------|------------------| ------------------|------------------|------------------|------------------| ------------------|------------------|------------------|------------------| ------------------|------------------|------------------|------------------| ------------------|------------------|------------------|------------------| ------------------|------------------|------------------|------------------| ------------------|------------------|------------------|------------------| ------------------|------------------|------------------|------------------| ------------------|------------------|------------------|------------------| ------------------|------------------|------------------|------------------| ------------------|------------------|------------------|------------------| ------------------|------------------|------------------|------------------| ------------------|------------------|------------------|------------------| ------------------|------------------|------------------|------------------| ------------------|------------------|------------------|------------------| ------------------|------------------|------------------|------------------| ------------------|------------------|------------------|------------------| ------------------|------------------|------------------|------------------| ------------------|------------------|------------------|------------------| ------------------|------------------|------------------|------------------| ------------------|------------------|------------------|------------------| ------------------|------------------|------------------|------------------| ------------------|------------------|------------------|------------------| ------------------|------------------|------------------|------------------| ------------------|------------------|------------------|------------------| ------------------|-------------------|------------------|-------------------| ------------------|-------------------|------------------|-------------------| ------------------|-------------------|------------------|-------------------| ------------------|-------------------|------------------|--7----------------| ------------------|--2----------------|------------------|--5----------------| ------------------|--0----------------|------------------|-------------------| ------------------|---------------------|----------------------| ------------------|---------------------|----------------------| ------------------|---------------------|----------------------| ------------------|--5------------5--4--|--2--------2--4--5----| ------------------|--3------------3--2--|--0--------0--2--3----| ------------------|---------------------|----------------------| -------------------|------------------|-------------------|------------------| -------------------|------------------|-------------------|------------------| -------------------|------------------|-------------------|------------------| -------------------|------------------|-------------------|------------------| --2----------------|------------------|--2----------------|------------------| --0----------------|------------------|--0----------------|------------------| -------------------|------------------|---------------------| -------------------|------------------|---------------------| -------------------|------------------|---------------------| --7----------------|------------------|--5------------5--4--| --5----------------|------------------|--3------------3--2--| -------------------|------------------|---------------------| ----------------------|-------------------|------------------| ----------------------|-------------------|------------------| ----------------------|-------------------|------------------| --2--------2--4--5----|-------------------|------------------| --0--------0--2--3----|--2----------------|------------------| ----------------------|--0----------------|------------------| -------------------|------------------|-------------------|------------------| -------------------|------------------|-------------------|------------------| -------------------|------------------|-------------------|------------------| -------------------|------------------|--7----------------|------------------| --2----------------|------------------|--5----------------|------------------| --0----------------|------------------|-------------------|------------------| -------------------|------------------|-------------------|------------------| -------------------|------------------|-------------------|------------------| -------------------|------------------|-------------------|------------------| --5----------------|------------------|--2----------------|------------------| --3----------------|------------------|--0----------------|------------------| -------------------|------------------|-------------------|------------------| -------------------|------------------|-------------------|------------------| -------------------|------------------|-------------------|------------------| -------------------|------------------|-------------------|------------------| -------------------|------------------|--7----------------|------------------| --2----------------|------------------|--5----------------|------------------| --0----------------|------------------|-------------------|------------------| -------------------|------------------|-------------------|------------------| -------------------|------------------|-------------------|------------------| -------------------|------------------|-------------------|------------------| --5----------------|------------------|--2----------------|------------------| --3----------------|------------------|--0----------------|------------------| -------------------|------------------|-------------------|------------------| --------------------------|--------------------------| --------------------------|--------------------------| --------------------------|--------------------------| --9-----------------------|--------------------------| --7--7--7--7--7--7--7--7--|--7--7--7--7--7--7--7--7--| --------------------------|--------------------------| --------------------------|--------------------------| --------------------------|--------------------------| --------------------------|--------------------------| --7-----------------------|--------------------------| --5--5--5--5--5--5--5--5--|--5--5--5--5--5--5--5--5--| --------------------------|--------------------------| --------------------------|--------------------------| --------------------------|--------------------------| --------------------------|--------------------------| --5-----------------------|--------------------------| --3--3--3--3--3--3--3--3--|--3--3--3--3--3--3--3--3--| --------------------------|--------------------------| --------------------------|--------------------------| --------------------------|--------------------------| --------------------------|--------------------------| --2-----------------------|--------------------------| --0--0--0--0--0--0--0--0--|--0--0--0--0--0--0--0--0--| --------------------------|--------------------------| --------------------------|--------------------------| --------------------------|--------------------------| --------------------------|--------------------------| --9-----------------------|--------------------------| --7--7--7--7--7--7--7--7--|--7--7--7--7--7--7--7--7--| --------------------------|--------------------------| --------------------------|--------------------------| --------------------------|--------------------------| --------------------------|--------------------------| --7-----------------------|--------------------------| --5--5--5--5--5--5--5--5--|--5--5--5--5--5--5--5--5--| --------------------------|--------------------------| --------------------------|----------------------|-------------------| --------------------------|----------------------|-------------------| --------------------------|----------------------|-------------------| --5-----------------5--4--|--2--------2--4--5----|-------------------| --3--3--3--3--3--3--3--2--|--0--------0--2--3----|--2----------------| --------------------------|----------------------|--0----------------| ------------------|------------------|------------------|------------------| ------------------|------------------|------------------|------------------| ------------------|------------------|------------------|------------------| ------------------|------------------|------------------|------------------| ------------------|------------------|------------------|------------------| ------------------|------------------|------------------|------------------| ------------------|------------------|------------------|--------------------| ------------------|------------------|------------------|--------------------| ------------------|------------------|------------------|--------------------| ------------------|------------------|------------------|--------------5--4--| ------------------|------------------|------------------|--------------3--2--| ------------------|------------------|------------------|--------------------| ----------------------|--------------------|| ----------------------|--------------------|| ----------------------|--------------------|| --2--------2--4--5----|--------------------|| --0--------0--2--3----|--2--2--------------|| ----------------------|--0--0--------------||

    поиск лекарств
    список лекарств






    О сайтеАккордыХит-парадПоискУроки ФорумыИщу песню
    ПрограммыСвежачок-сПодпискаСтатьи
    Яндекс.Метрика