Табулатура Nightwish | Astral Romance гитара табулатуры уроки тексты песен Nightwish текст lyrics песня аккорды песни ноты нота электрогитара струна  
   А Б В Г Д Е Ж З И К Л М Н О П Р С Т У Ф Х Ч Ш Ы Э Ю Я       Разные песни
1-9 A B C D E F G H I J K L M N O P Q R S T U V W Y Z      Все исполнители in english

    



группа Nightwish, Табулатура песни Astral Romance

Работа в Европе для граждан РФ, Украины, СНГ

  • минимальная зарплата $500.
  • виза и контракт на полгода, возможно продление
  • проживание оплачивает работодатель
  • нужен только загранпаспорт
  • оформление 190 €
  • данное предложение - отличная возможность эмигрировать в Европу и закрепиться здесь навсегда.

  • Мы свяжемся с Вами по WhatsApp или Viber и ответим на любые вопросы.
    на нашем сайте можно почитать подробнее »

    Группа: Nightwish - другие аккорды (414),   о группе (12 статей),   диски (6),   фотографии (25)
    Табулатура песни: Astral Romance
    Просмотров: 2187
    Подобрал: Forever (forever@akkords.ru)




        
                                    Astral Romance                                  
    
                                                                             
    Lead Guitar
    
                                                                       
    E||-------------------|-----------------------|-------------------|
    B||-------------------|-----------------------|-------------------|
    G||-------------------|-----------------------|-------------------|
    D||--2----------------|------2--2--2--4--5----|-------------------|
    A||-------------------|-----------------------|--5----------------|
    E||-------------------|-----------------------|-------------------|
    
                                                                         
    -----------------------|---------------------|----------------------|
    -----------------------|---------------------|----------------------|
    -----------------------|---------------------|----------------------|
    ---------------4--5----|---------------5--4--|--2-------------------|
    ------5--5--5----------|--3------------3--2--|--0--------0--2--3----|
    -----------------------|---------------------|----------------------|
    
                                                               
    -------------------|------------------|-------------------|
    -------------------|------------------|-------------------|
    -------------------|------------------|-------------------|
    -------------------|------------------|--5----------------|
    --2----------------|------------------|--7----------------|
    -------------------|------------------|-------------------|
    
                                                                         
    ------------------------|-------------------|-----------------------|
    ------------------------|-------------------|-----------------------|
    ------------------------|-------------------|---------------4--7----|
    ------5--5--5--7--9-----|--7----------------|------7--7--7--4--5----|
    ------7--7--7--9--10----|--5----------------|------5--5--5----------|
    ------------------------|-------------------|-----------------------|
    
                                                                      
    ---------------------|-----------------------|-------------------|
    ---------------------|-----------------------|-------------------|
    --5------------5--4--|-----------------------|-------------------|
    ---------------------|--7--------7--9--10----|--9----------------|
    --3------------------|-----------------------|-------------------|
    ---------------8--7--|--5--------5--7--8-----|--7----------------|
    
                                                                    
    ------------------|-------------------|------------------------|
    ------------------|-------------------|------------------------|
    ------------------|-------------------|------------------------|
    ------------------|--5----------------|------5--5--5--7--9-----|
    ------------------|--7----------------|------7--7--7--9--10----|
    ------------------|-------------------|------------------------|
    
                                                                      
    -------------------|-----------------------|---------------------|
    -------------------|-----------------------|---------------------|
    -------------------|---------------4--7----|--5------------5--4--|
    --7----------------|------7--7--7--4--5----|---------------------|
    --5----------------|------5--5--5----------|--3------------------|
    -------------------|-----------------------|---------------8--7--|
    
                                                                                 
    -----------------------|-------------------------|--------------------------|
    -----------------------|-------------------------|--------------------------|
    -----------------------|-------------------------|--------------------------|
    --7--------7--9--10----|-------------------------|--------------------------|
    -----------------------|-------------3--------3--|--------3--------3--------|
    --5--------5--7--8-----|--0----0--0--1--0--0--1--|--0--0--1--0--0--1--0--0--|
    
                                                                                  
    -------------------------|-------------------------|-------------------------|
    -------------------------|-------------------------|-------------------------|
    -------------------------|-------------------------|-------------------------|
    --2~---------------------|--------------4--5--7----|--5----------------------|
    -------------3--------3--|--------3-----2--3--5----|--3----------3--------3--|
    -------0--0--1--0--0--1--|--0--0--1--0-------------|-------0--0--1--0--0--1--|
    
                                                                                  
    --------------------------|-------------------------|------------------------|
    --------------------------|-------------------------|------------------------|
    --------------------------|-------------------------|------------------------|
    --------------------------|--2~---------------------|--------4--5--7----5----|
    --------3--------3--------|-------------3--------3--|--------2--3--5----3----|
    --0--0--1--0--0--1--0--0--|-------0--0--1--0--0--1--|--0--0------------------|
    
                                                          
    --------------------------|--------------------------|
    --------1--------0--------|--3--------1--------0--1--|
    --------2--------2--------|--2--------2--------2--2--|
    --------2--------2--------|--2--------2--------2--2--|
    --0--0--0--0--0--0--0--0--|--0--0--0--0--0--0--0--0--|
    --------------------------|--------------------------|
    
                                                          
    --------------------------|--------------------------|
    --------1--------0--------|--3--------1--------0--1--|
    --------2--------2--------|--2--------2--------2--2--|
    --------2--------2--------|--2--------2--------2--2--|
    --0--0--0--0--0--0--0--0--|--0--0--0--0--0--0--0--0--|
    --------------------------|--------------------------|
    
                                                          
    --------------------------|--------------------------|
    --------6--------8--------|--6--------8--------6--6--|
    --------7--------7--------|--7--------7--------7--7--|
    --------7--------7--------|--7--------7--------7--7--|
    --5--5--5--5--5--5--5--5--|--5--5--5--5--5--5--5--5--|
    --------------------------|--------------------------|
    
                                                          
    --------------------------|--------------------------|
    --------6--------8--------|--6--------8--------6--6--|
    --------7--------7--------|--7--------7--------7--7--|
    --------7--------7--------|--7--------7--------7--7--|
    --5--5--5--5--5--5--5--5--|--5--5--5--5--5--5--5--5--|
    --------------------------|--------------------------|
    
                                                          
    --------------------------|--------------------------|
    --------1--------0--------|--3--------1--------0--1--|
    --------2--------2--------|--2--------2--------2--2--|
    --------2--------2--------|--2--------2--------2--2--|
    --0--0--0--0--0--0--0--0--|--0--0--0--0--0--0--0--0--|
    --------------------------|--------------------------|
    
                                                          
    --------------------------|--------------------------|
    --------1--------0--------|--3--------1--------0--1--|
    --------2--------2--------|--2--------2--------2--2--|
    --------2--------2--------|--2--------2--------2--2--|
    --0--0--0--0--0--0--0--0--|--0--0--0--0--0--0--0--0--|
    --------------------------|--------------------------|
    
                                                          
    --------------------------|--------------------------|
    --------6--------8--------|--6--------8--------6--6--|
    --------7--------7--------|--7--------7--------7--7--|
    --------7--------7--------|--7--------7--------7--7--|
    --5--5--5--5--5--5--5--5--|--5--5--5--5--5--5--5--5--|
    --------------------------|--------------------------|
    
                                                          
    --------------------------|--------------------------|
    --------6--------8--------|--6--------8--------6--6--|
    --------7--------7--------|--7--------7--------7--7--|
    --------7--------7--------|--7--------7--------7--7--|
    --5--5--5--5--5--5--5--5--|--5--5--5--5--5--5--5--5--|
    --------------------------|--------------------------|
    
                                                          
    --------------------------|--------------------------|
    --------------------------|--------1--------0--------|
    --------------------------|--------2--------2--------|
    --------------------------|--------2--------2--------|
    --------3--------3-----3--|--0--0--0--0--0--0--0--0--|
    --0--0--1--0--0--1--0--1--|--------------------------|
    
                                                          
    --------------------------|--------------------------|
    --3--------1--------0--1--|--------1--------0--------|
    --2--------2--------2--2--|--------2--------2--------|
    --2--------2--------2--2--|--------2--------2--------|
    --0--0--0--0--0--0--0--0--|--0--0--0--0--0--0--0--0--|
    --------------------------|--------------------------|
    
                                                          
    --------------------------|--------------------------|
    --3--------1--------0--1--|--------6--------8--------|
    --2--------2--------2--2--|--------7--------7--------|
    --2--------2--------2--2--|--------7--------7--------|
    --0--0--0--0--0--0--0--0--|--5--5--5--5--5--5--5--5--|
    --------------------------|--------------------------|
    
                                                          
    --------------------------|--------------------------|
    --6--------8--------6--6--|--------6--------8--------|
    --7--------7--------7--7--|--------7--------7--------|
    --7--------7--------7--7--|--------7--------7--------|
    --5--5--5--5--5--5--5--5--|--5--5--5--5--5--5--5--5--|
    --------------------------|--------------------------|
    
                                                          
    --------------------------|--------------------------|
    --6--------8--------6--6--|--------1--------0--------|
    --7--------7--------7--7--|--------2--------2--------|
    --7--------7--------7--7--|--------2--------2--------|
    --5--5--5--5--5--5--5--5--|--0--0--0--0--0--0--0--0--|
    --------------------------|--------------------------|
    
                                                          
    --------------------------|--------------------------|
    --3--------1--------0--1--|--------1--------0--------|
    --2--------2--------2--2--|--------2--------2--------|
    --2--------2--------2--2--|--------2--------2--------|
    --0--0--0--0--0--0--0--0--|--0--0--0--0--0--0--0--0--|
    --------------------------|--------------------------|
    
                                                          
    --------------------------|--------------------------|
    --3--------1--------0--1--|--------6--------8--------|
    --2--------2--------2--2--|--------7--------7--------|
    --2--------2--------2--2--|--------7--------7--------|
    --0--0--0--0--0--0--0--0--|--5--5--5--5--5--5--5--5--|
    --------------------------|--------------------------|
    
                                                          
    --------------------------|--------------------------|
    --6--------8--------6--6--|--------6--------8--------|
    --7--------7--------7--7--|--------7--------7--------|
    --7--------7--------7--7--|--------7--------7--------|
    --5--5--5--5--5--5--5--5--|--5--5--5--5--5--5--5--5--|
    --------------------------|--------------------------|
    
                                                                               
    --------------------------|--------------------------|--------------------|
    --6--------8--------6--6--|--------------------------|--------------------|
    --7--------7--------7--7--|--------------------------|--------------------|
    --7--------7--------7--7--|--------------------------|--------------------|
    --5--5--5--5--5--5--5--5--|--------3--------3-----3--|--5--5--------------|
    --------------------------|--0--0--1--0--0--1--0--1--|--3--3--------------|
    
                                                                                    
    ------------------|------------------|---------------------|-------------------|
    ------------------|------------------|---------------------|-------------------|
    ------------------|------------------|---------------------|-------------------|
    ------------------|------------------|---------------------|-------------------|
    ------------------|------------------|-------------3----3--|--5----------------|
    ------------------|------------------|----------1--1----1--|--3----------------|
    
                                                  
    ------------------|--------------------------|
    ------------------|--------------------------|
    ------------------|--------------------------|
    ------------------|--------------8--8--8--8--|
    ------------------|--6--6--6--6--6--6--6--6--|
    ------------------|--------------------------|
    
                                                                  
    ----------------------------------|--------------------------|
    ----------------------------------|--------------------------|
    ----------------------------------|--------------------------|
    --10--10--10--10--10--10--10--10--|--------------------------|
    --8---8---8---8---8---8---8---8---|--------1--------1--------|
    ----------------------------------|--3--3-----3--3-----3--3--|
    
                                                                               
    --------------------------|-------------------------|---------------------|
    --------------------------|-------------------------|---------------------|
    --------------------------|-------------------------|---------------------|
    --------------------------|-------------------------|---------------------|
    --0--------0--------0--0--|--------1--------1-------|--3------3------3----|
    -----3--3-----3--3--------|--3--3-----3--3-----3----|--1------1------1----|
    
                                                          
    --------------------------|--------------------------|
    --------------------------|--------------------------|
    --------------------------|--------------------------|
    --------------------------|--------------------------|
    --------1--------1--------|--0--------0--------0--0--|
    --3--3-----3--3-----3--3--|-----3--3-----3--3--------|
    
                                                                  
    --------------------------|----------------------------------|
    --------------------------|----------------------------------|
    --------------------------|----------------------------------|
    --------------8--8--8--8--|--10--10--10--10--10--10--10--10--|
    --6--6--6--6--6--6--6--6--|--8---8---8---8---8---8---8---8---|
    --------------------------|----------------------------------|
    
                                                                                    
    --------------------------|--------------------------|-------------------------|
    --------------------------|--------------------------|-------------------------|
    --------------------------|--------------------------|-------------------------|
    --------------------------|--------------------------|-------------------------|
    --------1--------1--------|--0--------0--------0--0--|--------1--------1-------|
    --3--3-----3--3-----3--3--|-----3--3-----3--3--------|--3--3-----3--3-----3----|
    
                                                                                
    ---------------------|--------------------------|--------------------------|
    ---------------------|--------------------------|--------------------------|
    ---------------------|--------------------------|--------------------------|
    ---------------------|--------------------------|--------------------------|
    --3------3------3----|--------1--------1--------|--0--------0--------0--0--|
    --1------1------1----|--3--3-----3--3-----3--3--|-----3--3-----3--3--------|
    
                                                                  
    --------------------------|----------------------------------|
    --------------------------|----------------------------------|
    --------------------------|----------------------------------|
    --------------8--8--8--8--|--10--10--10--10--10--10--10--10--|
    --6--6--6--6--6--6--6--6--|--8---8---8---8---8---8---8---8---|
    --------------------------|----------------------------------|
    
                                                            
    --------------------------|----------------------------|
    --------------------------|----------------------------|
    --------------------------|----------------------------|
    
    Узнай ВСЕ о своем друге в ВК или FB
    --------5-----------5-----|--------3-------------------| -----5-----5-----6-----6--|-----3-----3--5h6h5h3-------| --3-----------3-----------|--3-------------------6--5~-| --------------------------|----------------------------| --------------------------|----------------------------| --------------------------|----------------------------| --------5-----------5-----|--------3-------------------| -----5-----5-----6-----6--|-----3-----3--5h6h5h3-------| --3-----------3-----------|--3-------------------6--5~-| --------------------------|--------------------------| --------------------------|--------------------------| --------------------------|--------------------------| --------------------------|--------------------------| --2--2--2--2--2--2--2--2--|--2--2--2--2--2--2--2--2--| --0--0--0--0--0--0--0--0--|--0--0--0--0--0--0--0--0--| --------------------------|--------------------------| --------------------------|--------------------------| --------------------------|--------------------------| --------------------------|--------------------------| --2--2--2--2--2--2--2--2--|--2--2--2--2--2--2--2--2--| --0--0--0--0--0--0--0--0--|--0--0--0--0--0--0--0--0--| --------------------------|----------------------------| --------------------------|----------------------------| --------------------------|----------------------------| --------6-----------6-----|--------4-------------------| -----6-----6-----7-----7--|-----4-----4--6h7h6h4-------| --4-----------4-----------|--4-------------------7--6~-| --------------------------|----------------------------| --------------------------|----------------------------| --------------------------|----------------------------| --------6-----------6-----|--------4-------------------| -----6-----6-----7-----7--|-----4-----4--6h7h6h4-------| --4-----------4-----------|--4-------------------7--6~-| --------------------------|--------------------------| --------------------------|--------------------------| --------------------------|--------------------------| --------------------------|--------------------------| --2--2--2--2--2--2--2--2--|--2--2--2--2--2--2--2--2--| --0--0--0--0--0--0--0--0--|--0--0--0--0--0--0--0--0--| --------------------------|--------------------------| --------------------------|--------------------------| --------------------------|--------------------------| --------------------------|--------------------------| --2--2--2--2--2--2--2--2--|--2--2--2--2--2--2--2--2--| --0--0--0--0--0--0--0--0--|--0--0--0--0--0--0--0--0--| --------------------------|----------------------------| --------------------------|----------------------------| --------------------------|----------------------------| --------6-----------6-----|--------4-------------------| -----6-----6-----7-----7--|-----4-----4--6h7h6h4-------| --4-----------4-----------|--4-------------------7--6~-| --------------------------|----------------------------| --------------------------|----------------------------| --------------------------|----------------------------| --------6-----------6-----|--------4-------------------| -----6-----6-----7-----7--|-----4-----4--6h7h6h4-------| --4-----------4-----------|--4-------------------7--6~-| --------------------------|--------------------------| --------------------------|--------------------------| --------------------------|--------------------------| --------------------------|--------------------------| --2--2--2--2--2--2--2--2--|--2--2--2--2--2--2--2--2--| --0--0--0--0--0--0--0--0--|--0--0--0--0--0--0--0--0--| --------------------------|--------------------------|-------------------| --------------------------|--------------------------|-------------------| --------------------------|--------------------------|-------------------| --------------------------|--------------------------|-------------------| --2--2--2--2--2--2--2--2--|--2--2--2--2--2--2--2--2--|--2----------------| --0--0--0--0--0--0--0--0--|--0--0--0--0--0--0--0--0--|--0----------------| ------------------|------------------|------------------|---|---|---|---| ------------------|------------------|------------------|---|---|---|---| ------------------|------------------|------------------|---|---|---|---| ------------------|------------------|------------------|---|---|---|---| ------------------|------------------|------------------|---|---|---|---| ------------------|------------------|------------------|---|---|---|---| --------------------|----------------------|-------------------| --------------------|----------------------|-------------------| --------------------|----------------------|-------------------| --------------5--4--|--2--------2--4--5----|-------------------| --------------3--2--|--0--------0--2--3----|--2----------------| --------------------|----------------------|--0----------------| ------------------|-------------------|------------------------| ------------------|-------------------|------------------------| ------------------|-------------------|------------------------| ------------------|--5----------------|------5--5--5--7--9-----| ------------------|--7----------------|------7--7--7--9--10----| ------------------|-------------------|------------------------| -------------------|-----------------------|---------------------| -------------------|-----------------------|---------------------| -------------------|---------------4--7----|--5------------5--4--| --7----------------|------7--7--7--4--5----|---------------------| --5----------------|------5--5--5----------|--3------------------| -------------------|-----------------------|---------------8--7--| -----------------------|-------------------|------------------| -----------------------|-------------------|------------------| -----------------------|-------------------|------------------| --7--------7--9--10----|--9----------------|------------------| -----------------------|-------------------|------------------| --5--------5--7--8-----|--7----------------|------------------| -------------------|------------------------|-------------------| -------------------|------------------------|-------------------| -------------------|------------------------|-------------------| --5----------------|------5--5--5--7--9-----|--7----------------| --7----------------|------7--7--7--9--10----|--5----------------| -------------------|------------------------|-------------------| -----------------------|---------------------|-----------------------| -----------------------|---------------------|-----------------------| ---------------4--7----|--5------------5--4--|-----------------------| ------7--7--7--4--5----|---------------------|--7--------7--9--10----| ------5--5--5----------|--3------------------|-----------------------| -----------------------|---------------8--7--|--5--------5--7--8-----| -------------------|------------------|--------------------| -------------------|------------------|--------------------| -------------------|------------------|--12~---------------| --9----------------|------------------|--------------------| -------------------|------------------|--------------------| --7----------------|------------------|--------------------| ------------------------------|--15h-14----------------|------------------| ----------------------12--13--|----------15~-----------|------------------| ------12--12--12--14----------|------------------------|------------------| ------------------------------|------------------------|------------------| ------------------------------|------------------------|------------------| ------------------------------|------------------------|------------------| -------------------------|-------------------------|------------------| -------------------------|--8h12h8-----------------|------------------| -----7-------------------|----------9--7--9r-------|------------------| --9-----10--9------------|-------------------------|------------------| ---------------10--------|-------------------------|------------------| -------------------------|-------------------------|------------------| ---------------8--10-12-10-8-----------------|------------------| -------8-10-12-10-12-13-12-10-12-10-8-7------|------------------| --9-11-9-11-12----------------12-11-9-8-11-9-|------------------| --9-10----------------------------------10-9~|------------------| ---------------------------------------------|------------------| ---------------------------------------------|------------------| ------------------|------------------|------------------|------------------| ------------------|------------------|------------------|------------------| ------------------|------------------|------------------|------------------| ------------------|------------------|------------------|------------------| ------------------|------------------|------------------|------------------| ------------------|------------------|------------------|------------------| ------------------|------------------|------------------| ------------------|------------------|------------------| ------------------|------------------|------------------| ------------------|------------------|------------------| ------------------|------------------|------------------| ------------------|------------------|------------------| ---------------------------|---------------------------| --12-10--------------------|---------------------------| --------12-11-9~-----------|------9--9--9--11--11--12--| ---------------------------|---------------------------| ---------------------------|---------------------------| ---------------------------|---------------------------| -------------------------|--------------------| --13~-----------8h10h8h7-|--------------------| -------------------------|--7-9~--------------| -------------------------|--------------------| -------------------------|--------------------| -------------------------|--------------------| -------------------------------------------|--------------------------| --12h10---------13h12h10-------------------|--------------------------| --------12h11h9----------12h11h9-----------|--------------------------| ---------------------------------13h10h9~--|----------9h10h9----------| -------------------------------------------|-----------------10h12~---| -------------------------------------------|--------------------------| ----------------------------------| ----------------------------------| -------------------14h16h17-------| ----------14h16h17----------16h17h| ----------------------------------| ----------------------------------| --------------------------------------------------| --------------------------------------------------| -----16h17h19----------17h19h21h19h17-------------| --19----------17h19h21----------------21h19h17/16-| --------------------------------------------------| --------------------------------------------------| ------15--14--15--17--15--14--15--|------15--14--15--17--15--14--15--| --17------------------------------|--17------------------------------| ----------------------------------|----------------------------------| --17~-----------------------------|----------------------------------| ----------------------------------|----------------------------------| ----------------------------------|----------------------------------| ------15--14--15--17--15--14--15--|------15--14--15--17--15--14--15--| --17------------------------------|--17------------------------------| ----------------------------------|----------------------------------| ----------------------------------|----------------------------------| ----------------------------------|----------------------------------| ----------------------------------|----------------------------------| -----15-14-15-17-15-14-15----15-14-15-17-15-14-15-| --17----------------------17----------------------| --------------------------------------------------| --------------------------------------------------| --------------------------------------------------| --------------------------------------------------| -----15-14-15-17-15-14-15----15-14-15-17-15-14-15-|--19~---------------| --17----------------------17----------------------|--------------------| --------------------------------------------------|--------------------| --------------------------------------------------|--------------------| --------------------------------------------------|--------------------| --------------------------------------------------|--------------------| ------------------|----------|----------|--12----------------| ------------------|----------|----------|--------------------| ------------------|----------|----------|--------------------| ------------------|----------|----------|--------------------| ------------------|----------|----------|--------------------| ------------------|----------|----------|--------------------| ------12--12--12--14--15----|--------------------|------------------14--15----| ----------------------------|--15----------------|------15--15--15------------| ----------------------------|--------------------|----------------------------| ----------------------------|--------------------|----------------------------| ----------------------------|--------------------|----------------------------| ----------------------------|--------------------|----------------------------| ------------------------|--------------------------|----------------------|| --13------------13--12--|----------------12--13----|--17--17--------------|| ------------------------|--14--------14------------|----------------------|| ------------------------|--------------------------|----------------------|| ------------------------|--------------------------|----------------------|| ------------------------|--------------------------|----------------------||

    поиск лекарств
    список лекарств

    Помощь психолога онлайн бесплатно

    Календарь спортивных мероприятий. Онлайн-консультации.

    liveexpert.ru








    О сайтеАккордыХит-парадПоискУроки ФорумыИщу песню
    ПрограммыСвежачок-сПодпискаСтатьи
    Яндекс.Метрика