Табулатура Nightwish | 10th Man Down гитара табулатуры уроки тексты песен Nightwish текст lyrics песня аккорды песни ноты нота электрогитара струна  
   А Б В Г Д Е Ж З И К Л М Н О П Р С Т У Ф Х Ч Ш Ы Э Ю Я       Разные песни
1-9 A B C D E F G H I J K L M N O P Q R S T U V W Y Z      Все исполнители in english

    



группа Nightwish, Табулатура песни 10th Man Down

Работа в Европе для граждан РФ, Украины, СНГ

  • минимальная зарплата $500.
  • виза и контракт на полгода, возможно продление
  • проживание оплачивает работодатель
  • нужен только загранпаспорт
  • оформление 190 €
  • данное предложение - отличная возможность эмигрировать в Европу и закрепиться здесь навсегда.

  • Мы свяжемся с Вами по WhatsApp или Viber и ответим на любые вопросы.
    на нашем сайте можно почитать подробнее »

    Группа: Nightwish - другие аккорды (414),   о группе (12 статей),   диски (6),   фотографии (25)
    Табулатура песни: 10th Man Down
    Просмотров: 1010
    Подобрал: Forever (forever@akkords.ru)




        
                                    10th Man Down                                   
    
                                                                           Nightwish
    Emppu (Guitar)
    
                                                                                   
    E||------------------|------------------|------------------|------------------|
    B||------------------|------------------|------------------|------------------|
    G||------------------|------------------|------------------|------------------|
    D||------------------|------------------|------------------|------------------|
    A||------------------|------------------|------------------|------------------|
    E||------------------|------------------|------------------|------------------|
    
                                                                                
    ------------------|------------------|------------------|------------------|
    ------------------|------------------|------------------|------------------|
    ------------------|------------------|------------------|------------------|
    ------------------|------------------|------------------|------------------|
    ------------------|------------------|------------------|------------------|
    ------------------|------------------|------------------|------------------|
    
                                                                                 
    ------------------|------------------|-------------------|------------------|
    ------------------|------------------|-------------------|------------------|
    ------------------|------------------|--2----------------|------------------|
    ------------------|------------------|--2----------------|------------------|
    ------------------|------------------|--0----------------|------------------|
    ------------------|------------------|-------------------|------------------|
    
                                                                 
    ------------------|--------------------|--------------------|
    ------------------|--------------------|--------------------|
    ------------------|--------------------|--2-----------------|
    ------------------|--5--------3--------|--2------3----------|
    ------------------|--5--------3--------|--0------3----------|
    ------------------|--3--------1--------|---------1----------|
    
                                                                               
    --------------------|--------------------------|--------------------------|
    --------------------|--------------------------|--------------------------|
    ---------2----------|--------------------------|--------------------------|
    --5------2----------|--7--7--7--7--7--7--7--7--|--3--3--3--3--3--3--3--3--|
    --5------0----------|--5--5--5--5--5--5--5--5--|--3--3--3--3--3--3--3--3--|
    --3-----------------|--------------------------|--1--1--1--1--1--1--1--1--|
    
                                                                   
    --------------------|--------------------|--------------------|
    --------------------|--------------------|--------------------|
    --5--5--------------|--5--5--------------|--5--5--------------|
    --5--5--------------|--5--5--------------|--5--5--------------|
    --3--3--------------|--3--3--------------|--3--3--------------|
    --------------------|--------------------|--------------------|
    
                                                                    
    ---------------------|--------------------|--------------------|
    ---------------------|--------------------|--------------------|
    --3--------8----7----|--5-----------------|--3------5----------|
    --3--------8----7----|--5------6----------|--3------5----------|
    --1--------6----5----|--3------6----------|--1------3----------|
    ---------------------|---------4----------|--------------------|
    
                                                                              
    --------------------------|-------------------|--------------------------|
    --------------------------|-------------------|--------------------------|
    --------------------------|-------------------|--2--------2--------------|
    --3--3--3--3--3--3--3--3--|--6----------------|--2--------3--------------|
    --3--3--3--3--3--3--3--3--|--6----------------|--0--0--0--0--0--0--0--0--|
    --1--1--1--1--1--1--1--1--|--4----------------|--------------------------|
    
                                                                               
    --------------------------|--------------------------|--------------------|
    --------------------------|--------------------------|--------------------|
    --------------2-----2-----|--2--------2--------------|--------------------|
    --5-----5-----2-----2-----|--2--------3--------------|--5--------3--------|
    --5-----5-----0--0--0--0--|--0--0--0--0--0--0--0--0--|--5--------3--------|
    --3--3--3--3--------------|--------------------------|--3--------1--------|
    
                                                                              
    --------------------------|-------------------------|--------------------|
    --------------------------|-------------------------|--------------------|
    --------------------------|-------------------------|--------------------|
    --2--------3--------3-----|--5-----5/----7-----7/---|--0--------------3--|
    -----0--0-----0--0-----0--|-----0-----0-----0-------|--------------------|
    --------------------------|-------------------------|--------------------|
    
                                                                             
    ------------------|--------------------------|--------------------------|
    ------------------|--------------------------|--------------------------|
    ------------------|--2--------2--------------|--------------2-----2-----|
    ------------------|--2--------3--------------|--5-----5-----2-----2-----|
    ------------------|--0--0--0--0--0--0--0--0--|--5-----5-----0--0--0--0--|
    ------------------|--------------------------|--3--3--3--3--------------|
    
                                                                               
    --------------------------|--------------------|--------------------------|
    --------------------------|--------------------|--------------------------|
    --2--------2--------------|--------------------|--------------------------|
    --2--------3--------------|--5--------3--------|--2--------3--------3-----|
    --0--0--0--0--0--0--0--0--|--5--------3--------|-----0--0-----0--0-----0--|
    --------------------------|--3--------1--------|--------------------------|
    
                                                                      
    -------------------------|--------------------|------------------|
    -------------------------|--------------------|------------------|
    -------------------------|--------------------|------------------|
    --5-----5/----7-----7----|--0--------------3--|------------------|
    -----0-----0-----0-------|--------------------|------------------|
    -------------------------|--------------------|------------------|
    
                                                                              
    ---------------------|-------------------|-------------------------------|
    ---------------------|-------------------|-------------------------------|
    ---------------------|-------------------|--2----------2----------2------|
    --2------------3--2--|--0----------------|--2----------2----------2------|
    --3------------5--3--|--2----------------|--0--0-0-0-0-0--0-0-0-0-0--0-0-|
    ---------------------|-------------------|-------------------------------|
    
                                                                
    ---------------------------|-------------------------------|
    ---------------------------|-------------------------------|
    ------2----------2----5----|------------------------7--7-7-|
    ------2----------2----5----|--2----------2----------7--7-7-|
    --0-0-0--0-0-0-0-0----3----|--2----------2----------5--5-5-|
    ---------------------------|--0--0-0-0-0-0--0-0-0-0--------|
    
                                                                
    ---------------------------|-------------------------------|
    ---------------------------|-------------------------------|
    --7-7-7--7-7-7-7-5----4----|--2----------2----------2------|
    --7-7-7--7-7-7-7-5----4----|--2----------2----------2------|
    --5-5-5--5-5-5-5-3----2----|--0--0-0-0-0-0--0-0-0-0-0--0-0-|
    ---------------------------|-------------------------------|
    
                                                                
    ---------------------------|-------------------------------|
    ---------------------------|-------------------------------|
    ------2----------2----5----|------------------------7--7-7-|
    ------2----------2----5----|--3----------3----------7--7-7-|
    --0-0-0--0-0-0-0-0----3----|--3----------3----------5--5-5-|
    ---------------------------|--1--1-1-1-1-1--1-1-1-1--------|
    
                                                           
    ---------------------------|--------------------------|
    ---------------------------|--------------------------|
    --7-7-7--7-7-7-7-5---------|--2--------2--------------|
    --7-7-7--7-7-7-7-5----5----|--2--------3--------------|
    --5-5-5--5-5-5-5-3----5----|--0--0--0--0--0--0--0--0--|
    ----------------------3----|--------------------------|
    
                                                                               
    --------------------------|--------------------------|--------------------|
    --------------------------|--------------------------|--------------------|
    --------------2-----2-----|--2--------2--------------|--------------------|
    --5-----5-----2-----2-----|--2--------3--------------|--5--------3--------|
    --5-----5-----0--0--0--0--|--0--0--0--0--0--0--0--0--|--5--------3--------|
    --3--3--3--3--------------|--------------------------|--3--------1--------|
    
                                                                              
    --------------------------|-------------------------|--------------------|
    --------------------------|-------------------------|--------------------|
    --------------------------|-------------------------|--------------------|
    --2--------3--------3-----|--5-----5/----7-----7/---|--0--------------3--|
    -----0--0-----0--0-----0--|-----0-----0-----0-------|--------------------|
    --------------------------|-------------------------|--------------------|
    
                                                                             
    ------------------|--------------------------|--------------------------|
    ------------------|--------------------------|--------------------------|
    ------------------|--2--------2--------------|--------------2-----2-----|
    ------------------|--2--------3--------------|--5-----5-----2-----2-----|
    ------------------|--0--0--0--0--0--0--0--0--|--5-----5-----0--0--0--0--|
    ------------------|--------------------------|--3--3--3--3--------------|
    
                                                                               
    --------------------------|--------------------|--------------------------|
    --------------------------|--------------------|--------------------------|
    --2--------2--------------|--------------------|--------------------------|
    --2--------3--------------|--5--------3--------|--2--------3--------3-----|
    --0--0--0--0--0--0--0--0--|--5--------3--------|-----0--0-----0--0-----0--|
    --------------------------|--3--------1--------|--------------------------|
    
                                                                      
    -------------------------|--------------------|------------------|
    -------------------------|--------------------|------------------|
    -------------------------|--------------------|------------------|
    --5-----5/----7-----7----|--0--------------3--|------------------|
    -----0-----0-----0-------|--------------------|------------------|
    -------------------------|--------------------|------------------|
    
                                                                              
    ---------------------|-------------------|-------------------------------|
    ---------------------|-------------------|-------------------------------|
    ---------------------|-------------------|--2----------2----------2------|
    --2------------3--2--|--0----------------|--2----------2----------2------|
    --3------------5--3--|--2----------------|--0--0-0-0-0-0--0-0-0-0-0--0-0-|
    ---------------------|-------------------|-------------------------------|
    
                                                                
    ---------------------------|-------------------------------|
    ---------------------------|-------------------------------|
    ------2----------2----5----|------------------------7--7-7-|
    ------2----------2----5----|--2----------2----------7--7-7-|
    --0-0-0--0-0-0-0-0----3----|--2----------2----------5--5-5-|
    ---------------------------|--0--0-0-0-0-0--0-0-0-0--------|
    
                                                                
    ---------------------------|-------------------------------|
    ---------------------------|-------------------------------|
    --7-7-7--7-7-7-7-5----4----|--2----------2----------2------|
    --7-7-7--7-7-7-7-5----4----|--2----------2----------2------|
    --5-5-5--5-5-5-5-3----2----|--0--0-0-0-0-0--0-0-0-0-0--0-0-|
    ---------------------------|-------------------------------|
    
                                                                
    ---------------------------|-------------------------------|
    ---------------------------|-------------------------------|
    ------2----------2----5----|------------------------7--7-7-|
    ------2----------2----5----|--3----------3----------7--7-7-|
    --0-0-0--0-0-0-0-0----3----|--3----------3----------5--5-5-|
    ---------------------------|--1--1-1-1-1-1--1-1-1-1--------|
    
                                                       
    ---------------------------|----------------------|
    ---------------------------|----------------------|
    --7-7-7--7-7-7-7-5---------|--2-------------------|
    --7-7-7--7-7-7-7-5----5----|--2----2----3----5----|
    --5-5-5--5-5-5-5-3----5----|--0----2----3----5----|
    ----------------------3----|-------0----1----3----|
    
                                                                    
    ----------------------------------|----------------------------|
    ----------------------------------|----------------------------|
    --2-------2----3--2-------2----5--|--2-------2----3-------3----|
    --2-------2----3--2-------2----5--|--2-------2----3--5----3----|
    --0--0-0--0--0-1--0--0-0--0--0-3--|--0--0-0--0--0-1--5----1----|
    ----------------------------------|------------------3---------|
    
                                                            
    ----------------------------------|--------------------|
    ----------------------------------|--------------------|
    --2-------2----3--2-------2----5--|--3--------7--------|
    --2-------2----3--2-------2----5--|--3--------7--------|
    --0--0-0--0--0-1--0--0-0--0--0-3--|--1--------5--------|
    ----------------------------------|--------------------|
    
                                                                    
    ----------------------------------|----------------------------|
    ----------------------------------|----------------------------|
    --2-------2----3--2-------2----5--|--2-------2----3-------3----|
    --2-------2----3--2-------2----5--|--2-------2----3--5----3----|
    --0--0-0--0--0-1--0--0-0--0--0-3--|--0--0-0--0--0-1--5----1----|
    ----------------------------------|------------------3---------|
    
                                                             
    ----------------------------------|---------------------|
    
    Узнай ВСЕ о своем друге в ВК или FB
    ----------------------------------|---------------------| --2-------2----3--2-------2----5--|--7--------5---------| --2-------2----3--2-------2----5--|--7--------5----5----| --0--0-0--0--0-1--0--0-0--0--0-3--|--5--------3----5----| ----------------------------------|----------------3----| ----------------------------------|----------------------------| -------------------------------1--|----------------------------| --2-------2----3--2-------2----0--|--2-------2----3-------3----| --2-------2----3--2-------2-------|--2-------2----3--5----3----| --0--0-0--0--0-1--0--0-0--0--0-3--|--0--0-0--0--0-1--5----1----| ----------------------------------|------------------3---------| ----------------------------------|--------------------| ----------------------------------|--------------------| --2-------2----3--2-------2----5--|--3--------7--------| --2-------2----3--2-------2----5--|--3--------7--------| --0--0-0--0--0-1--0--0-0--0--0-3--|--1--------5--------| ----------------------------------|--------------------| ----------------------------------|----------------------------| ----------------------------------|----------------------------| --2-------2----3--2-------2----5--|--2-------2----3-------3----| --2-------2----3--2-------2----5--|--2-------2----3--5----3----| --0--0-0--0--0-1--0--0-0--0--0-3--|--0--0-0--0--0-1--5----1----| ----------------------------------|------------------3---------| ----------------------------------|---------------------| ----------------------------------|---------------------| --2-------2----3--2-------2----5--|--7--------5---------| --2-------2----3--2-------2----5--|--7--------5----5----| --0--0-0--0--0-1--0--0-0--0--0-3--|--5--------3----5----| ----------------------------------|----------------3----| -------------------------------|--------------------------| -------------------------------|--------------------------| -------------------------------|--------------------------| --2--2-2--2----2--2-2--2--2-2--|--2----2--2-2--2--2--3----| --2--2-2--2----2--2-2--2--2-2--|--2----2--2-2--2--2--3----| --0--0-0--0----0--0-0--0--0-0--|--0----0--0-0--0--0--1----| -------------------------------|---------------------13~---| -------------------------------|---------------------13~---| -------------------------------|---------------------------| --2--2-2--2----2--2-2--2--2-2--|--2----2--2-2--2--2--------| --2--2-2--2----2--2-2--2--2-2--|--2----2--2-2--2--2--------| --0--0-0--0----0--0-0--0--0-0--|--0----0--0-0--0--0--------| -------------------------------|-------------------------------| -------------------------------|-------------------------------| -------------------------------|-------------------------------| --2--2-2--2----2--2-2--2--2-2--|--2--2-2--2----2--2-2--2--2-2--| --2--2-2--2----2--2-2--2--2-2--|--2--2-2--2----2--2-2--2--2-2--| --0--0-0--0----0--0-0--0--0-0--|--0--0-0--0----0--0-0--0--0-0--| --------------------------|-------------------------------| --------------------------|-------------------------------| --------------------------|-------------------------------| --2----2--2-2--2--2--3----|--2--2-2--2----2--2-2--2--2-2--| --2----2--2-2--2--2--3----|--2--2-2--2----2--2-2--2--2-2--| --0----0--0-0--0--0--1----|--0--0-0--0----0--0-0--0--0-0--| -------------------------|-------------------------------| -------------------------|-------------------------------| ---------------5----7----|-------------------------------| --2----2--2-2--5----7----|--2--2-2--2----2--2-2--2--2-2--| --2----2--2-2--3----5----|--2--2-2--2----2--2-2--2--2-2--| --0----0--0-0------------|--0--0-0--0----0--0-0--0--0-0--| --------------------------|-------------------------------| --------------------------|-------------------------------| --------------------------|-------------------------------| --2----2--2-2--2--2--3----|--2--2-2--2----2--2-2--2--2-2--| --2----2--2-2--2--2--3----|--2--2-2--2----2--2-2--2--2-2--| --0----0--0-0--0--0--1----|--0--0-0--0----0--0-0--0--0-0--| -------------------------|--------------------|---------------------| -------------------------|--------------------|---------------------| ---------------5----7----|--2-----------------|--2------------------| --2----2--2-2--5----7----|--2------------5----|--2--------3----5----| --2----2--2-2--3----5----|--0------------5----|--0--------3----5----| --0----0--0-0------------|---------------3----|-----------1----3----| --------------------|-------------------|--------------------| --------------------|-------------------|--------------------| --2-----------------|--7----------------|--2-----------------| --2--------5--------|--7----------------|--2------------5----| --0--------5--------|--5----------------|--0------------5----| -----------3--------|-------------------|---------------3----| ---------------------|--------------------|-------------------| ---------------------|--------------------|-------------------| --2------------------|--2--------5--------|-------------------| --2--------3----5----|--2--------5--------|--5----------------| --0--------3----5----|--0--------3--------|--5----------------| -----------1----3----|--------------------|--3----------------| ------------------|------------------|-------------------------------| ------------------|------------------|-------------------------------| ------------------|------------------|-------------------------------| ------------------|------------------|-------------------------------| ------------------|------------------|--2--2-2--2----2--2-2--2--2-2--| ------------------|------------------|--0--0-0--0----0--0-0--0--0-0--| -------------------------|-------------------------------| -------------------------|-------------------------------| ---------------2----7----|-------------------------------| ---------------2----7----|--2--2-2--2----2--2-2--2--2-2--| --2----2--2-2--0----5----|--2--2-2--2----2--2-2--2--2-2--| --0----0--0-0------------|--0--0-0--0----0--0-0--0--0-0--| -------------------------|-------------------------------| -------------------------|-------------------------------| --------------------7----|-------------------------------| --2----2--2-2--5----7----|--2--2-2--2----2--2-2--2--2-2--| --2----2--2-2--5----5----|--2--2-2--2----2--2-2--2--2-2--| --0----0--0-0--3---------|--0--0-0--0----0--0-0--0--0-0--| -------------------------|-------------------------------| -------------------------|-------------------------------| ---------------2----7----|-----------------------5--5-5--| --2----2--2-2--2----7----|--5--5-5--5----5--5-5--5--5-5--| --2----2--2-2--0----5----|--5--5-5--5----5--5-5--3--3-3--| --0----0--0-0------------|--3--3-3--3----3--3-3----------| -------------------------|-------------------------------| -------------------------|-------------------------------| ---------------3---------|-----------------------5--5-5--| --5----5--5-5--3----3----|--5--5-5--5----5--5-5--5--5-5--| --5----5--5-5--1----3----|--5--5-5--5----5--5-5--3--3-3--| --3----3--3-3-------1----|--3--3-3--3----3--3-3----------| -------------------------|-------------------------------| -------------------------|-------------------------------| ---------------5---------|-------------------------------| --5----5--5-5--5----3----|--2--2-2--2----2--2-2--2--2-2--| --5----5--5-5--3----3----|--2--2-2--2----2--2-2--2--2-2--| --3----3--3-3-------1----|--0--0-0--0----0--0-0--0--0-0--| -------------------------|-------------------------------| -------------------------|-------------------------------| --------------------7----|-------------------------------| --2----2--2-2--5----7----|--2--2-2--2----2--2-2--2--2-2--| --2----2--2-2--5----5----|--2--2-2--2----2--2-2--2--2-2--| --0----0--0-0--3---------|--0--0-0--0----0--0-0--0--0-0--| -------------------------|-------------------------------| -------------------------|-------------------------------| ---------------2----7----|-----------------------5--5-5--| --2----2--2-2--2----7----|--5--5-5--5----5--5-5--5--5-5--| --2----2--2-2--0----5----|--5--5-5--5----5--5-5--3--3-3--| --0----0--0-0------------|--3--3-3--3----3--3-3----------| -------------------------|-------------------------------| -------------------------|-------------------------------| ---------------3---------|-----------------------5--5-5--| --5----5--5-5--3----3----|--5--5-5--5----5--5-5--5--5-5--| --5----5--5-5--1----3----|--5--5-5--5----5--5-5--3--3-3--| --3----3--3-3-------1----|--3--3-3--3----3--3-3----------| -------------------------|----------------------------------| -------------------------|----------------------------------| ---------------5---------|--2-------2----3--2-------2----5--| --5----5--5-5--5----3----|--2-------2----3--2-------2----5--| --5----5--5-5--3----3----|--0--0-0--0--0-1--0--0-0--0--0-3--| --3----3--3-3-------1----|----------------------------------| ----------------------------|----------------------------------| ----------------------------|----------------------------------| --2-------2----3-------3----|--2-------2----3--2-------2----5--| --2-------2----3--5----3----|--2-------2----3--2-------2----5--| --0--0-0--0--0-1--5----1----|--0--0-0--0--0-1--0--0-0--0--0-3--| ------------------3---------|----------------------------------| --------------------|----------------------------------| --------------------|----------------------------------| --3--------7--------|--2-------2----3--2-------2----5--| --3--------7--------|--2-------2----3--2-------2----5--| --1--------5--------|--0--0-0--0--0-1--0--0-0--0--0-3--| --------------------|----------------------------------| ----------------------------|----------------------------------| ----------------------------|----------------------------------| --2-------2----3-------3----|--2-------2----3--2-------2----5--| --2-------2----3--5----3----|--2-------2----3--2-------2----5--| --0--0-0--0--0-1--5----1----|--0--0-0--0--0-1--0--0-0--0--0-3--| ------------------3---------|----------------------------------| ---------------------|----------------------|-------------------------------| ---------------------|----------------------|-------------------------------| --7--------5---------|--2-------------------|--2----------2----------2------| --7--------5----5----|--2----2----3----5----|--2----------2----------2------| --5--------3----5----|--0----2----3----5----|--0--0-0-0-0-0--0-0-0-0-0--0-0-| ----------------3----|-------0----1----3----|-------------------------------| ---------------------------|-------------------------------| ---------------------------|-------------------------------| ------2----------2----5----|------------------------7------| ------2----------2----5----|--2----------2----------7------| --0-0-0--0-0-0-0-0----3----|--2----------2----------5--5-5-| ---------------------------|--0--0-0-0-0-0--0-0-0-0--------| ---------------------------|-------------------------------| ---------------------------|-------------------------------| ------7----------5----4----|--2----------2----------2------| ------7----------5----4----|--2----------2----------2------| --5-5-5--5-5-5-5-3----2----|--0--0-0-0-0-0--0-0-0-0-0--0-0-| ---------------------------|-------------------------------| ---------------------------|-------------------------------| ---------------------------|-------------------------------| ------2----------2----5----|------------------------7------| ------2----------2----5----|--3----------3----------7------| --0-0-0--0-0-0-0-0----3----|--3----------3----------5--5-5-| ---------------------------|--1--1-1-1-1-1--1-1-1-1--------| ---------------------------|-------------------------------| ---------------------------|-------------------------------|

    поиск лекарств
    список лекарств






    О сайтеАккордыХит-парадПоискУроки ФорумыИщу песню
    ПрограммыСвежачок-сПодпискаСтатьи
    Яндекс.Метрика