Табулатура Nightwish | Ever Dream  (2) гитара табулатуры уроки тексты песен Nightwish текст lyrics песня аккорды песни ноты нота электрогитара струна  
   А Б В Г Д Е Ж З И К Л М Н О П Р С Т У Ф Х Ч Ш Ы Э Ю Я       Разные песни
1-9 A B C D E F G H I J K L M N O P Q R S T U V W Y Z      Все исполнители in english

    



группа Nightwish, Табулатура песни Ever Dream (2)

Работа в Европе для граждан РФ, Украины, СНГ

  • минимальная зарплата $500.
  • виза и контракт на полгода, возможно продление
  • проживание оплачивает работодатель
  • нужен только загранпаспорт
  • оформление 190 €
  • данное предложение - отличная возможность эмигрировать в Европу и закрепиться здесь навсегда.

  • Мы свяжемся с Вами по WhatsApp или Viber и ответим на любые вопросы.
    на нашем сайте можно почитать подробнее »

    Группа: Nightwish - другие аккорды (414),   о группе (12 статей),   диски (6),   фотографии (25)
    Табулатура песни: Ever Dream (2)
    Просмотров: 1773
    Подобрал: Forever (forever@akkords.ru)




        
                                      Ever Dream                                    
    
                                                                          
    Guitar I
    
                                                                                    
    E||------|------|------|------|------|------|------|------|------|------|------|
    B||------|------|------|------|------|------|------|------|------|------|------|
    G||------|------|------|------|------|------|------|------|------|------|------|
    D||------|------|------|------|------|------|------|------|------|------|------|
    A||------|------|------|------|------|------|------|------|------|------|------|
    E||------|------|------|------|------|------|------|------|------|------|------|
    
                                                                               
    ------|------|------|------|------|------|------||------------------------|
    ------|------|------|------|------|------|------||------------------------|
    ------|------|------|------|------|------|------||*-----------------5--5--|
    ------|------|------|------|------|------|------||*------5--5--5----5--5--|
    ------|------|------|------|------|------|------||-------5--5--5----3--3--|
    ------|------|------|------|------|------|------||-------3--3--3----------|
    
                                                                           
    ----------------------|-----------------------|-----------------------|
    ----------------------|-----------------------|-----------------------|
    --5-------------------|-----------------5--5--|--5----3--3--3---------|
    --5----3--3--3--------|------5--5--5----5--5--|--5----3--3--3----3----|
    --3----3--3--3--------|------5--5--5----3--3--|--3----1--1--1----3----|
    -------1--1--1--------|------3--3--3----------|------------------1----|
    
                                                                        
    -----------------------|----------------------|--------------------|
    -----------------------|----------------------|--------------------|
    -----------------5--5--|--5-------------------|--5-----------------|
    ------5--5--5----5--5--|--5----3--3--3--------|--5--------3--------|
    ------5--5--5----3--3--|--3----3--3--3--------|--3--------3--------|
    ------3--3--3----------|-------1--1--1--------|-----------1--------|
    
                                                                                    
    --------------------||-------------------|------------------|------------------|
    --------------------||-------------------|------------------|------------------|
    -------------------*||-------------------|------------------|------------------|
    --5----------------*||--5----------------|------------------|------------------|
    --5-----------------||--5----------------|------------------|------------------|
    --3-----------------||--3----------------|------------------|------------------|
    
                                                                                
    ------------------|------------------|------------------|------------------|
    ------------------|------------------|------------------|------------------|
    ------------------|------------------|------------------|------------------|
    ------------------|------------------|------------------|------------------|
    ------------------|------------------|------------------|------------------|
    ------------------|------------------|------------------|------------------|
    
                                                                                
    ------------------|------------------|------------------|------------------|
    ------------------|------------------|------------------|------------------|
    ------------------|------------------|------------------|------------------|
    ------------------|------------------|------------------|------------------|
    ------------------|------------------|------------------|------------------|
    ------------------|------------------|------------------|------------------|
    
                                                                                 
    ----------------------|--------------------------|--------------------------|
    ----------------------|--------------------------|--------------------------|
    --3----3----3----3----|--------------------------|--------------------------|
    --3----3----3----3----|--5--5--5--5--5--5--5--5--|--5--5--5--5--5--5--5--5--|
    --1----1----1----1----|--5--5--5--5--5--5--5--5--|--5--5--5--5--5--5--5--5--|
    ----------------------|--3--3--3--3--3--3--3--3--|--3--3--3--3--3--3--3--3--|
    
                                                          
    --------------------------|--------------------------|
    --------------------------|--------------------------|
    --------------------------|--------------------------|
    --8--8--8--8--8--8--8--8--|--8--8--8--8--7--7--7--7--|
    --8--8--8--8--8--8--8--8--|--8--8--8--8--8--8--8--8--|
    --6--6--6--6--6--6--6--6--|--6--6--6--6--5--5--5--5--|
    
                                                                                  
    --------------------------|--------------------------|-----------------------|
    --------------------------|--------------------------|-----------------------|
    --------------------------|--------------------------|--8--8--8--8--8--------|
    --5--5--5--5--5--5--5--5--|--5--5--5--5--5--5--5--5--|--8--8--8--8--8--------|
    --5--5--5--5--5--5--5--5--|--5--5--5--5--5--5--5--5--|--6--6--6--6--6--------|
    --3--3--3--3--3--3--3--3--|--3--3--3--3--3--3--3--3--|-----------------------|
    
                                                                              
    -------------------|--------------------------|--------------------------|
    -------------------|--------------------------|--------------------------|
    -------------------|--------------------------|--------------------------|
    --3----------------|--5--------5--------5-----|--5--------5-----5-----5--|
    --3----------------|--5--------5--------5-----|--6--------6-----6-----6--|
    --1----------------|--3--3--3--3--3--3--3--3--|--3--3--3--3--3--3--3--3--|
    
                                                                              
    --------------------------|-------------------|--------------------------|
    --------------------------|-------------------|--------------------------|
    --------------------------|-------------------|--------------------------|
    --5--------5--------5-----|--3----------------|--5--------5--------5-----|
    --5--------5--------5-----|--3----------------|--5--------5--------5-----|
    --3--3--3--3--3--3--3--3--|--1----------------|--3--3--3--3--3--3--3--3--|
    
                                                                       
    --------------------------|-------------------|-------------------|
    --------------------------|-------------------|-------------------|
    --------------------------|--5----------------|-------------------|
    --5--------5-----5-----5--|--5----------------|--3----------------|
    --6--------6-----6-----6--|--3----------------|--3----------------|
    --3--3--3--3--3--3--3--3--|-------------------|--1----------------|
    
                                                                              
    --------------------------|--------------------------|-------------------|
    --------------------------|--------------------------|-------------------|
    --------------------------|--------------------------|--3----------------|
    --5--------5--------5-----|--5--------5-----5-----5--|--3----------------|
    --5--------5--------5-----|--6--------6-----6-----6--|--1----------------|
    --3--3--3--3--3--3--3--3--|--3--3--3--3--3--3--3--3--|-------------------|
    
                                                                              
    -------------------|--------------------------|--------------------------|
    -------------------|--------------------------|--------------------------|
    -------------------|--------------------------|--------------------------|
    --3----------------|--5--------5--------5-----|--5--------5--------5-----|
    --3----------------|--5--------5--------5-----|--6--------6--------6-----|
    --1----------------|--3--3--3--3--3--3--3--3--|--3--3--3--3--3--3--3--3--|
    
                                                                    
    -------------------|-------------------|-----------------------|
    -------------------|-------------------|-----------------------|
    -------------------|-------------------|-----------------5--5--|
    --3----------------|--3----------------|------5--5--5----5--5--|
    --3----------------|--3----------------|------5--5--5----3--3--|
    --1----------------|--1----------------|------3--3--3----------|
    
                                                                           
    ----------------------|-----------------------|-----------------------|
    ----------------------|-----------------------|-----------------------|
    --5-------------------|-----------------5--5--|--5----3--3--3---------|
    --5----3--3--3--------|------5--5--5----5--5--|--5----3--3--3----3----|
    --3----3--3--3--------|------5--5--5----3--3--|--3----1--1--1----3----|
    -------1--1--1--------|------3--3--3----------|------------------1----|
    
                                                                        
    -----------------------|----------------------|--------------------|
    -----------------------|----------------------|--------------------|
    -----------------5--5--|--5-------------------|--5-----------------|
    ------5--5--5----5--5--|--5----3--3--3--------|--5--------3--------|
    ------5--5--5----3--3--|--3----3--3--3--------|--3--------3--------|
    ------3--3--3----------|-------1--1--1--------|-----------1--------|
    
                                                          
    --------------------------|--------------------------|
    --------------------------|--------------------------|
    --------------------------|--------------------------|
    --5--5--5--5--5--5--5--5--|--5--5--5--5--5--5--5--5--|
    --5--5--5--5--5--5--5--5--|--5--5--5--5--5--5--5--5--|
    --3--3--3--3--3--3--3--3--|--3--3--3--3--3--3--3--3--|
    
                                                          
    --------------------------|--------------------------|
    --------------------------|--------------------------|
    --------------------------|--------------------------|
    --8--8--8--8--8--8--8--8--|--8--8--8--8--7--7--7--7--|
    --8--8--8--8--8--8--8--8--|--8--8--8--8--8--8--8--8--|
    --6--6--6--6--6--6--6--6--|--6--6--6--6--5--5--5--5--|
    
                                                                                  
    --------------------------|--------------------------|-----------------------|
    --------------------------|--------------------------|-----------------------|
    --------------------------|--------------------------|--8--8--8--8--8--------|
    --5--5--5--5--5--5--5--5--|--5--5--5--5--5--5--5--5--|--8--8--8--8--8--------|
    --5--5--5--5--5--5--5--5--|--5--5--5--5--5--5--5--5--|--6--6--6--6--6--------|
    --3--3--3--3--3--3--3--3--|--3--3--3--3--3--3--3--3--|-----------------------|
    
                                                                              
    -------------------|--------------------------|--------------------------|
    -------------------|--------------------------|--------------------------|
    -------------------|--------------------------|--------------------------|
    --3----------------|--5--------5--------5-----|--5--------5-----5-----5--|
    --3----------------|--5--------5--------5-----|--6--------6-----6-----6--|
    --1----------------|--3--3--3--3--3--3--3--3--|--3--3--3--3--3--3--3--3--|
    
                                                                              
    --------------------------|-------------------|--------------------------|
    --------------------------|-------------------|--------------------------|
    --------------------------|-------------------|--------------------------|
    --5--------5--------5-----|--3----------------|--5--------5--------5-----|
    --5--------5--------5-----|--3----------------|--5--------5--------5-----|
    --3--3--3--3--3--3--3--3--|--1----------------|--3--3--3--3--3--3--3--3--|
    
                                                                       
    --------------------------|-------------------|-------------------|
    --------------------------|-------------------|-------------------|
    --------------------------|--5----------------|-------------------|
    --5--------5-----5-----5--|--5----------------|--3----------------|
    --6--------6-----6-----6--|--3----------------|--3----------------|
    --3--3--3--3--3--3--3--3--|-------------------|--1----------------|
    
                                                                              
    --------------------------|--------------------------|-------------------|
    --------------------------|--------------------------|-------------------|
    --------------------------|--------------------------|--3----------------|
    --5--------5--------5-----|--5--------5-----5-----5--|--3----------------|
    --5--------5--------5-----|--6--------6-----6-----6--|--1----------------|
    --3--3--3--3--3--3--3--3--|--3--3--3--3--3--3--3--3--|-------------------|
    
                                                                              
    -------------------|--------------------------|--------------------------|
    -------------------|--------------------------|--------------------------|
    -------------------|--------------------------|--------------------------|
    --3----------------|--5--------5--------5-----|--5--------5--------5-----|
    --3----------------|--5--------5--------5-----|--6--------6--------6-----|
    --1----------------|--3--3--3--3--3--3--3--3--|--3--3--3--3--3--3--3--3--|
    
                                                                                   
    -------------------|-------------------|-------------------|------------------|
    -------------------|-------------------|-------------------|------------------|
    -------------------|-------------------|--8----------------|------------------|
    --3----------------|--3----------------|--8----------------|------------------|
    --3----------------|--3----------------|--6----------------|------------------|
    --1----------------|--1----------------|-------------------|------------------|
    
                                                                                  
    
    Узнай ВСЕ о своем друге в ВК или FB
    -------------------|------------------|-------------------|------------------| -------------------|------------------|-------------------|------------------| -------------------|------------------|--8----------------|------------------| --5----------------|------------------|--8----------------|------------------| --5----------------|------------------|--6----------------|------------------| --3----------------|------------------|-------------------|------------------| -------------------|--6--8---8---6--5-----6--5--|--5----8---6----5-------| -------------------|--8--10--10--8--6--6--8--6--|--7----10--8----6--6----| -------------------|-------------------5--------|-------------------7----| --3----------------|----------------------------|------------------------| --3----------------|----------------------------|------------------------| --1----------------|----------------------------|------------------------| ------------------|------------------------------|--------------------| ------------------|--11/---10--11/---13--11/-10--|--------------------| ------------------|------------------------------|--10----------------| ------------------|------------------------------|--------------------| ------------------|------------------------------|--------------------| ------------------|------------------------------|--------------------| ---------------------|-------------------|-----------------------| --3------1-----------|--3----------------|-----------------------| --3------2------2----|-------------------|-----------------------| ----------------3----|--5----------------|-----0--1--0------1----| ---------------------|-------------------|--3--------------------| ---------------------|-------------------|-----------------------| -------------------------|-----------------------| ----------------------1--|--3--1--3--------------| -------------------3--2--|--3--2--3----3----2----| --3--1--0--1-------5-----|-------------5----3----| --------------3----------|-----------------------| -------------------------|-----------------------| --------------------------------------|--1------------1--3--| ---------------------------------1--3-|--3------------3--4--| --3--2-3--2-0----------------0-2-2--3-|---------------------| --5--3-5--3-1--3--1--0----1--1-3------|---------------------| ---------------5--3--1--3-3-----------|---------------------| ------------------------5-------------|---------------------| --1----------3--3--5--|--5----------------|--5----5-------------| --1-------------------|-------------------|----------6----------| ----------------------|-------------------|---------------------| ----------------------|-------------------|---------------------| ----------------------|-------------------|---------------------| ----------------------|-------------------|---------------------| --10------10------15--17--|--18--17--17--15--15--------------| --------------------------|--------------18--18--18--18--20--| ------------------15------|--19--17--17----------19--19--24--| --------------------------|----------------------------------| --------------------------|----------------------------------| --------------------------|----------------------------------| ----------------------|----------------------|------------------| --20--------20--------|--20--------20--------|------------------| ----------------------|----------------------|------------------| ----------------------|----------------------|------------------| ----------------------|----------------------|------------------| ----------------------|----------------------|------------------| ------------------|------------------|------------------|------------------| ------------------|------------------|------------------|------------------| ------------------|------------------|------------------|------------------| ------------------|------------------|------------------|------------------| ------------------|------------------|------------------|------------------| ------------------|------------------|------------------|------------------| ------------------|------------------|------------------|-------------------| ------------------|------------------|------------------|-------------------| ------------------|------------------|------------------|--3----------------| ------------------|------------------|------------------|--3----------------| ------------------|------------------|------------------|--1----------------| ------------------|------------------|------------------|-------------------| -------------------|-------------------|-------------------|-------------------| -------------------|-------------------|-------------------|-------------------| -------------------|-------------------|-------------------|-------------------| --3----------------|--5----------------|--5----------------|--3----------------| --3----------------|--5----------------|--6----------------|--3----------------| --1----------------|--3----------------|--3----------------|--1----------------| -------------------|-------------------------------| -------------------|-------------------------------| -------------------|--3----------3----------3------| --3----------------|--3----------3----------3------| --3----------------|--1--1-1-1-1-1--1-1-1-1-1--1-1-| --1----------------|-------------------------------| -------------------------------|-------------------------------| -------------------------------|-------------------------------| --3----------3----------3------|--3----------3----------3------| --4----------4----------4------|--3----------3----------3------| --1--1-1-1-1-1--1-1-1-1-1--1-1-|--1--1-1-1-1-1--1-1-1-1-1--1-1-| -------------------------------|-------------------------------| -------------------|-------------------------------| -------------------|-------------------------------| --1----------------|--3----------3----------3------| --1----------------|--3----------3----------3------| -------------------|--1--1-1-1-1-1--1-1-1-1-1--1-1-| --4----------------|-------------------------------| -------------------------------|-------------------|-------------------| -------------------------------|-------------------|-------------------| --3----------3----------3------|-------------------|--1----------------| --4----------4----------4------|--1----------------|--1----------------| --1--1-1-1-1-1--1-1-1-1-1--1-1-|--1----------------|-------------------| -------------------------------|-------------------|--4----------------| -------------------------------|-------------------------------| -------------------------------|-------------------------------| --3----------3----------3------|--3----------3----------3------| --3----------3----------3------|--4----------4----------4------| --1--1-1-1-1-1--1-1-1-1-1--1-1-|--1--1-1-1-1-1--1-1-1-1-1--1-1-| -------------------------------|-------------------------------| -------------------|-------------------|-------------------------------| --2----------------|-------------------|-------------------------------| --1----------------|--1----------------|--3----------3----------3------| -------------------|--1----------------|--3----------3----------3------| --4----------------|-------------------|--1--1-1-1-1-1--1-1-1-1-1--1-1-| -------------------|--4----------------|-------------------------------| -------------------------------|----------------------------------| -------------------------------|----------------------------------| -------------------------------|----------------------------------| --4----------4----------4------|----------1-------3---------------| --4----------4----------4------|--4-----------------------4-------| --2--2-2-2-2-2--2-2-2-2-2--2-2-|----4-4-4---4-4-4---4-4-4---4-4-4-| ----------------------------|-------------------------------| ----------------------------|-------------------------------| ----------------------------|--3----------3----------3------| --1-------------------------|--3----------3----------3------| ----------3-------4----3----|--1--1-1-1-1-1--1-1-1-1-1--1-1-| ----4-4-4---4-4-4-4----4----|-------------------------------| -------------------------------|-------------------------------| -------------------------------|-------------------------------| --3----------3----------3------|--3----------3----------3------| --4----------4----------4------|--3----------3----------3------| --1--1-1-1-1-1--1-1-1-1-1--1-1-|--1--1-1-1-1-1--1-1-1-1-1--1-1-| -------------------------------|-------------------------------| -------------------|-------------------------------| -------------------|-------------------------------| --1----------------|--3----------3----------3------| --1----------------|--3----------3----------3------| -------------------|--1--1-1-1-1-1--1-1-1-1-1--1-1-| --4----------------|-------------------------------| -------------------------------|-------------------|-------------------| -------------------------------|-------------------|-------------------| --3----------3----------3------|-------------------|--1----------------| --4----------4----------4------|--1----------------|--1----------------| --1--1-1-1-1-1--1-1-1-1-1--1-1-|--1----------------|-------------------| -------------------------------|-------------------|--4----------------| -------------------------------|-------------------------------| -------------------------------|-------------------------------| --3----------3----------3------|--3----------3----------3------| --3----------3----------3------|--4----------4----------4------| --1--1-1-1-1-1--1-1-1-1-1--1-1-|--1--1-1-1-1-1--1-1-1-1-1--1-1-| -------------------------------|-------------------------------| -------------------|-------------------|-------------------------------| --2----------------|-------------------|-------------------------------| --1----------------|--1----------------|--3----------3----------3------| -------------------|--1----------------|--3----------3----------3------| --4----------------|-------------------|--1--1-1-1-1-1--1-1-1-1-1--1-1-| -------------------|--4----------------|-------------------------------| -------------------------------|----------------------------------| -------------------------------|----------------------------------| -------------------------------|----------------------------------| --4----------4----------4------|----------1-------3---------------| --4----------4----------4------|--4-----------------------4-------| --2--2-2-2-2-2--2-2-2-2-2--2-2-|----4-4-4---4-4-4---4-4-4---4-4-4-| ----------------------------|-------------------|------|| ----------------------------|-------------------|------|| ----------------------------|--3----------------|------|| --1-------------------------|--3----------------|------|| ----------3-------4----3----|--1----------------|------|| ----4-4-4---4-4-4-4----4----|-------------------|------||

    искать в аптеке
    список лекарств






    О сайтеАккордыХит-парадПоискУроки ФорумыИщу песню
    ПрограммыСвежачок-сПодпискаСтатьи
    Яндекс.Метрика