Табулатура Nightwish | Ever Dream гитара табулатуры уроки тексты песен Nightwish текст lyrics песня аккорды песни ноты нота электрогитара струна  
   А Б В Г Д Е Ж З И К Л М Н О П Р С Т У Ф Х Ч Ш Ы Э Ю Я       Разные песни
1-9 A B C D E F G H I J K L M N O P Q R S T U V W Y Z      Все исполнители in english

    



группа Nightwish, Табулатура песни Ever Dream

Продолжаем грести бабос на ботах в Telegram.
Только в этот раз есть вариант автоматизировать это дело, привлекая рефералов. Вы можете заработать если »

Группа: Nightwish - другие аккорды (414),   о группе (12 статей),   диски (6),   фотографии (25)
Табулатура песни: Ever Dream
Просмотров: 1397
Прислал: Forever (forever@akkords.ru)




    
                                  Ever Dream                                    

Guitar II

                                                                                
E||------|------|------|------|------|------|------|------|------|------|------|
B||------|------|------|------|------|------|------|------|------|------|------|
G||------|------|------|------|------|------|------|------|------|------|------|
D||------|------|------|------|------|------|------|------|------|------|------|
A||------|------|------|------|------|------|------|------|------|------|------|
E||------|------|------|------|------|------|------|------|------|------|------|

                                                                               
------|------|------|------|------|------|------||-------|------|------|------|
------|------|------|------|------|------|------||-------|------|------|------|
------|------|------|------|------|------|------||*------|------|------|------|
------|------|------|------|------|------|------||*------|------|------|------|
------|------|------|------|------|------|------||-------|------|------|------|
------|------|------|------|------|------|------||-------|------|------|------|

                                                                               
------|------|------|-------||------|------|------|------|------|------|------|
------|------|------|-------||------|------|------|------|------|------|------|
------|------|------|------*||------|------|------|------|------|------|------|
------|------|------|------*||------|------|------|------|------|------|------|
------|------|------|-------||------|------|------|------|------|------|------|
------|------|------|-------||------|------|------|------|------|------|------|

                                                                             
------|------|------|------|------|------|------|------|------|------|------|
------|------|------|------|------|------|------|------|------|------|------|
------|------|------|------|------|------|------|------|------|------|------|
------|------|------|------|------|------|------|------|------|------|------|
------|------|------|------|------|------|------|------|------|------|------|
------|------|------|------|------|------|------|------|------|------|------|

                                                                             
------|------|------|------|------|------|------|------|------|------|------|
------|------|------|------|------|------|------|------|------|------|------|
------|------|------|------|------|------|------|------|------|------|------|
------|------|------|------|------|------|------|------|------|------|------|
------|------|------|------|------|------|------|------|------|------|------|
------|------|------|------|------|------|------|------|------|------|------|

                                                                             
------|------|------|------|------|------|------|------|------|------|------|
------|------|------|------|------|------|------|------|------|------|------|
------|------|------|------|------|------|------|------|------|------|------|
------|------|------|------|------|------|------|------|------|------|------|
------|------|------|------|------|------|------|------|------|------|------|
------|------|------|------|------|------|------|------|------|------|------|

                                                                             
------|------|------|------|------|------|------|------|------|------|------|
------|------|------|------|------|------|------|------|------|------|------|
------|------|------|------|------|------|------|------|------|------|------|
------|------|------|------|------|------|------|------|------|------|------|
------|------|------|------|------|------|------|------|------|------|------|
------|------|------|------|------|------|------|------|------|------|------|

                                                                             
------|------|------|------|------|------|------|------|------|------|------|
------|------|------|------|------|------|------|------|------|------|------|
------|------|------|------|------|------|------|------|------|------|------|
------|------|------|------|------|------|------|------|------|------|------|
------|------|------|------|------|------|------|------|------|------|------|
------|------|------|------|------|------|------|------|------|------|------|

                                                                             
------|------|------|------|------|------|------|------|------|------|------|
------|------|------|------|------|------|------|------|------|------|------|
------|------|------|------|------|------|------|------|------|------|------|
------|------|------|------|------|------|------|------|------|------|------|
------|------|------|------|------|------|------|------|------|------|------|
------|------|------|------|------|------|------|------|------|------|------|

                                                                    
------|------|--------------------------|--------------------------|
------|------|--------------------------|--------------------------|
------|------|--------------------------|--------------------------|
------|------|--5--5--5--5--5--5--5--5--|--5--5--5--5--5--5--5--5--|
------|------|--5--5--5--5--5--5--5--5--|--5--5--5--5--5--5--5--5--|
------|------|--3--3--3--3--3--3--3--3--|--3--3--3--3--3--3--3--3--|

                                                      
--------------------------|--------------------------|
--------------------------|--------------------------|
--------------------------|--------------------------|
--5--5--5--5--5--5--5--5--|--3--3--3--3--3--3--3--3--|
--5--5--5--5--5--5--5--5--|--3--3--3--3--3--3--3--3--|
--3--3--3--3--3--3--3--3--|--1--1--1--1--1--1--1--1--|

                                                      

Продолжаем грести бабос на ботах в Telegram.
Только в этот раз есть вариант автоматизировать это дело, привлекая рефералов. Вы можете заработать если »

--------------------------|--------------------------| --------------------------|--------------------------| --------------------------|--------------------------| --5--5--5--5--5--5--5--5--|--5--5--5--5--5--5--5--5--| --5--5--5--5--5--5--5--5--|--5--5--5--5--5--5--5--5--| --3--3--3--3--3--3--3--3--|--3--3--3--3--3--3--3--3--| --------------------------|--------------------------| --------------------------|--------------------------| --5--5--5--5--5--5--5--5--|--------------------------| --5--5--5--5--5--5--5--5--|--3--3--3--3--3--3--3--3--| --3--3--3--3--3--3--3--3--|--3--3--3--3--3--3--3--3--| --------------------------|--1--1--1--1--1--1--1--1--| --------------------------|--------------------------| --------------------------|--------------------------| --------------------------|--------------------------| --5--5--5--5--5--5--5--5--|--5--5--5--5--5--5--5--5--| --5--5--5--5--5--5--5--5--|--5--5--5--5--5--5--5--5--| --3--3--3--3--3--3--3--3--|--3--3--3--3--3--3--3--3--| --------------------------|--------------------------| --------------------------|--------------------------| --3--3--3--3--3--3--3--3--|--------------------------| --3--3--3--3--3--3--3--3--|--3--3--3--3--3--3--3--3--| --1--1--1--1--1--1--1--1--|--3--3--3--3--3--3--3--3--| --------------------------|--1--1--1--1--1--1--1--1--| --------------------------|--------------------------| --------------------------|--------------------------| --------------------------|--------------------------| --5--5--5--5--5--5--5--5--|--5--5--5--5--5--5--5--5--| --5--5--5--5--5--5--5--5--|--6--6--6--6--6--6--6--6--| --3--3--3--3--3--3--3--3--|--3--3--3--3--3--3--3--3--| --------------------------|--------------------------|------|------|------| --------------------------|--------------------------|------|------|------| --------------------------|--------------------------|------|------|------| --3--3--3--3--3--3--3--3--|--3--3--3--3--3--3--3--3--|------|------|------| --3--3--3--3--3--3--3--3--|--3--3--3--3--3--3--3--3--|------|------|------| --1--1--1--1--1--1--1--1--|--1--1--1--1--1--1--1--1--|------|------|------| ------|------|------|------|------|------|------|----|------|------|------| ------|------|------|------|------|------|------|----|------|------|------| ------|------|------|------|------|------|------|----|------|------|------| ------|------|------|------|------|------|------|----|------|------|------| ------|------|------|------|------|------|------|----|------|------|------| ------|------|------|------|------|------|------|----|------|------|------| ------|------|------|------|------|------|------|------|------|------|------| ------|------|------|------|------|------|------|------|------|------|------| ------|------|------|------|------|------|------|------|------|------|------| ------|------|------|------|------|------|------|------|------|------|------| ------|------|------|------|------|------|------|------|------|------|------| ------|------|------|------|------|------|------|------|------|------|------| ------|------|------|------|------|------|------|------|------|------|------| ------|------|------|------|------|------|------|------|------|------|------| ------|------|------|------|------|------|------|------|------|------|------| ------|------|------|------|------|------|------|------|------|------|------| ------|------|------|------|------|------|------|------|------|------|------| ------|------|------|------|------|------|------|------|------|------|------| ------|------|------|------|------|------|------|------|------|------|------| ------|------|------|------|------|------|------|------|------|------|------| ------|------|------|------|------|------|------|------|------|------|------| ------|------|------|------|------|------|------|------|------|------|------| ------|------|------|------|------|------|------|------|------|------|------| ------|------|------|------|------|------|------|------|------|------|------| ------|------|------|| ------|------|------|| ------|------|------|| ------|------|------|| ------|------|------|| ------|------|------||

искать в аптеке
список лекарств






О сайтеАккордыХит-парадПоискУроки ФорумыИщу песню
ПрограммыСвежачок-сПодпискаСтатьи
Яндекс.Метрика