Табулатура Nightwish | Dead To The World  (2) гитара табулатуры уроки тексты песен Nightwish текст lyrics песня аккорды песни ноты нота электрогитара струна  
   А Б В Г Д Е Ж З И К Л М Н О П Р С Т У Ф Х Ч Ш Ы Э Ю Я       Разные песни
1-9 A B C D E F G H I J K L M N O P Q R S T U V W Y Z      Все исполнители in english

    



группа Nightwish, Табулатура песни Dead To The World (2)

Работа в Европе для граждан РФ, Украины, СНГ

  • минимальная зарплата $500.
  • виза и контракт на полгода, возможно продление
  • проживание оплачивает работодатель
  • нужен только загранпаспорт
  • оформление 190 €
  • данное предложение - отличная возможность эмигрировать в Европу и закрепиться здесь навсегда.

  • Мы свяжемся с Вами по WhatsApp или Viber и ответим на любые вопросы.
    на нашем сайте можно почитать подробнее »

    Группа: Nightwish - другие аккорды (414),   о группе (12 статей),   диски (6),   фотографии (25)
    Табулатура песни: Dead To The World (2)
    Просмотров: 839
    Подобрал: Forever (forever@akkords.ru)




        
                                  Dead To The World                                 
    
                                                                           Nightwish
    Guitar 1.
    
                                                                                   
    E||------------------|------------------|------------------|------------------|
    B||------------------|------------------|------------------|------------------|
    G||------------------|------------------|------------------|------------------|
    D||------------------|------------------|------------------|------------------|
    A||------------------|------------------|------------------|------------------|
    E||------------------|------------------|------------------|------------------|
    
                                                                                
    ------------------|------------------|------------------|------------------|
    ------------------|------------------|------------------|------------------|
    ------------------|------------------|------------------|------------------|
    ------------------|------------------|------------------|------------------|
    ------------------|------------------|------------------|------------------|
    ------------------|------------------|------------------|------------------|
    
                                                                           
    -----------------------------------|----------------------------------|
    -----------------------------------|----------------------------------|
    --9-----9-----9-10-7-----7-----7-9-|--5-----5-----5-7-4-----4-----5-7-|
    ----7-7---7-7--------7-7---7-7-----|----7-7---7-7-------5-5---5-5-----|
    -----------------------------------|----------------------------------|
    -----------------------------------|----------------------------------|
    
                                                                             
    -----------------------------------|------------------------------------|
    -----------------------------------|------------------------------------|
    --9-----9-----9-10-7-----7-----7-9-|--10-----10-----10-12-10--9--7--10--|
    ----7-7---7-7--------7-7---7-7-----|-----7-7----7-7---------------------|
    -----------------------------------|------------------------------------|
    -----------------------------------|------------------------------------|
    
                                                                           
    -----------------------------------|----------------------------------|
    -----------------------------------|----------------------------------|
    --9-----9-----9-10-7-----7-----7-9-|--5-----5-----5-7-4-----4-----5-7-|
    ----7-7---7-7--------7-7---7-7-----|----7-7---7-7-------5-5---5-5-----|
    -----------------------------------|----------------------------------|
    -----------------------------------|----------------------------------|
    
                                                                             
    -----------------------------------|------------------------------------|
    -----------------------------------|------------------------------------|
    --9-----9-----9-10-7-----7-----7-9-|--10-----10-----10-12-10--9--7--10--|
    ----7-7---7-7--------7-7---7-7-----|-----7-7----7-7---------------------|
    -----------------------------------|------------------------------------|
    -----------------------------------|------------------------------------|
    
                                                                     
    --------------------------|------------------|------------------|
    --------------------------|------------------|------------------|
    --9--7--5--9--7--5--4-----|------------------|------------------|
    -----------------------5--|------------------|------------------|
    --------------------------|------------------|------------------|
    --------------------------|------------------|------------------|
    
                                                                                
    ------------------|------------------|------------------|------------------|
    ------------------|------------------|------------------|------------------|
    ------------------|------------------|------------------|------------------|
    ------------------|------------------|------------------|------------------|
    ------------------|------------------|------------------|------------------|
    ------------------|------------------|------------------|------------------|
    
                                                                                
    ------------------|------------------|------------------|------------------|
    ------------------|------------------|------------------|------------------|
    ------------------|------------------|------------------|------------------|
    ------------------|------------------|------------------|------------------|
    ------------------|------------------|------------------|------------------|
    ------------------|------------------|------------------|------------------|
    
                                                                                
    ------------------|------------------|------------------|------------------|
    ------------------|------------------|------------------|------------------|
    ------------------|------------------|------------------|------------------|
    ------------------|------------------|------------------|------------------|
    ------------------|------------------|------------------|------------------|
    ------------------|------------------|------------------|------------------|
    
                                                                                
    ------------------|------------------|------------------|------------------|
    ------------------|------------------|------------------|------------------|
    ------------------|------------------|------------------|------------------|
    ------------------|------------------|------------------|------------------|
    ------------------|------------------|------------------|------------------|
    ------------------|------------------|------------------|------------------|
    
                                                                                
    ------------------|------------------|------------------|------------------|
    ------------------|------------------|------------------|------------------|
    ------------------|------------------|------------------|------------------|
    ------------------|------------------|------------------|------------------|
    ------------------|------------------|------------------|------------------|
    ------------------|------------------|------------------|------------------|
    
                                                                                
    ------------------|------------------|------------------|------------------|
    ------------------|------------------|------------------|------------------|
    ------------------|------------------|------------------|------------------|
    ------------------|------------------|------------------|------------------|
    ------------------|------------------|------------------|------------------|
    ------------------|------------------|------------------|------------------|
    
                                                                                
    ------------------|------------------|------------------|------------------|
    ------------------|------------------|------------------|------------------|
    ------------------|------------------|------------------|------------------|
    ------------------|------------------|------------------|------------------|
    ------------------|------------------|------------------|------------------|
    ------------------|------------------|------------------|------------------|
    
                                                                                
    ------------------|------------------|------------------|------------------|
    ------------------|------------------|------------------|------------------|
    ------------------|------------------|------------------|------------------|
    ------------------|------------------|------------------|------------------|
    ------------------|------------------|------------------|------------------|
    ------------------|------------------|------------------|------------------|
    
                                                                                
    ------------------|------------------|------------------|------------------|
    ------------------|------------------|------------------|------------------|
    ------------------|------------------|------------------|------------------|
    ------------------|------------------|------------------|------------------|
    ------------------|------------------|------------------|------------------|
    ------------------|------------------|------------------|------------------|
    
                                                                                
    ------------------|------------------|------------------|------------------|
    ------------------|------------------|------------------|------------------|
    ------------------|------------------|------------------|------------------|
    ------------------|------------------|------------------|------------------|
    ------------------|------------------|------------------|------------------|
    ------------------|------------------|------------------|------------------|
    
                                                                                
    ------------------|------------------|------------------|------------------|
    ------------------|------------------|------------------|------------------|
    ------------------|------------------|------------------|------------------|
    ------------------|------------------|------------------|------------------|
    ------------------|------------------|------------------|------------------|
    ------------------|------------------|------------------|------------------|
    
                                                                                
    ------------------|------------------|------------------|------------------|
    ------------------|------------------|------------------|------------------|
    ------------------|------------------|------------------|------------------|
    ------------------|------------------|------------------|------------------|
    ------------------|------------------|------------------|------------------|
    ------------------|------------------|------------------|------------------|
    
                                                                                
    ------------------|------------------|------------------|------------------|
    ------------------|------------------|------------------|------------------|
    ------------------|------------------|------------------|------------------|
    ------------------|------------------|------------------|------------------|
    ------------------|------------------|------------------|------------------|
    ------------------|------------------|------------------|------------------|
    
                                                                                
    ------------------|------------------|------------------|------------------|
    ------------------|------------------|------------------|------------------|
    ------------------|------------------|------------------|------------------|
    ------------------|------------------|------------------|------------------|
    ------------------|------------------|------------------|------------------|
    ------------------|------------------|------------------|------------------|
    
                                                                                
    ------------------|------------------|------------------|------------------|
    ------------------|------------------|------------------|------------------|
    ------------------|------------------|------------------|------------------|
    ------------------|------------------|------------------|------------------|
    ------------------|------------------|------------------|------------------|
    ------------------|------------------|------------------|------------------|
    
                                          
    ------------------|------------------|
    ------------------|------------------|
    ------------------|------------------|
    ------------------|------------------|
    ------------------|------------------|
    ------------------|------------------|
    
                                                       
    --------------------------------------------------|
    --------------------------------------------------|
    --14-------14-------14-15-12-------12-------12-14-|
    -----12-12----12-12----------12-12----12-12-------|
    --------------------------------------------------|
    --------------------------------------------------|
    
                                                     
    
    Узнай ВСЕ о своем друге в ВК или FB
    ------------------------------------------------| ------------------------------------------------| --10-------10-------10-12-9-------9-------10-12-| -----12-12----12-12---------10-10---10-10-------| ------------------------------------------------| ------------------------------------------------| --------------------------------------------------| --------------------------------------------------| --14-------14-------14-15-12-------12-------12-14-| -----12-12----12-12----------12-12----12-12-------| --------------------------------------------------| --------------------------------------------------| ------------------------------------------| ------------------------------------------| --15-------15-------15-17-15--14--12--15--| -----12-12----12-12-----------------------| ------------------------------------------| ------------------------------------------| --------------------------------------------------| --------------------------------------------------| --14-------14-------14-15-12-------12-------12-14-| -----12-12----12-12----------12-12----12-12-------| --------------------------------------------------| --------------------------------------------------| ------------------------------------------------| ------------------------------------------------| --10-------10-------10-12-9-------9-------10-12-| -----12-12----12-12---------10-10---10-10-------| ------------------------------------------------| ------------------------------------------------| --------------------------------------------------| --------------------------------------------------| --14-------14-------14-15-12-------12-------12-14-| -----12-12----12-12----------12-12----12-12-------| --------------------------------------------------| --------------------------------------------------| ------------------------------------------|----------------------------| ------------------------------------------|--7---7---7-8-10---10---7-8-| --15-------15-------15-17-15--14--12--15--|----------------------------| -----12-12----12-12-----------------------|----------------------------| ------------------------------------------|----------------------------| ------------------------------------------|----------------------------| --------------------------|------------------|------------------| --10---10---8--7----------|------------------|------------------| -------------------9---7--|------------------|------------------| --------------------------|------------------|------------------| --------------------------|------------------|------------------| --------------------------|------------------|------------------| ----------------------------|--------------------------|------------------| --7---7---7-8-10---10---7-8-|--10---10---8--7----------|------------------| ----------------------------|-------------------9---7--|------------------| ----------------------------|--------------------------|------------------| ----------------------------|--------------------------|------------------| ----------------------------|--------------------------|------------------| ------------------|------------------------|-------------------------| ------------------|--13b-------13----------|-------------------------| ------------------|------------------------|--9--------10--10h9-7----| ------------------|------------------10----|-------------------------| ------------------|------------------------|-------------------------| ------------------|------------------------|-------------------------| ------------------------------|--15----------------------8--12-| ------------------------------|-----------------5--10-11-10-13-| --12--------12----12----12----|--------------10-12-10-12-------| ------------------------------|--------------12----------------| ------------------------------|--------------------------------| ------------------------------|--------------------------------| --10--10------8---8-----0-5-6-|--10--10------8---8---10-8-6-5-| --11--11------10--10--6-8-6-8-|--11--11------10--10-----------| ----------------------7-------|-------------------------------| ------------------------------|---------------------------5-7-| ------------------------------|----------------------7--8-----| ------------------------------|-------------------------------| --10------8----6----5--|--8---6---5--3--------|------------------| -----------------------|----------------------|------------------| -----------------------|----------------------|------------------| --8-------7----5----3--|--7---5---3--2--------|------------------| -----------------------|----------------------|------------------| -----------------------|----------------------|------------------| ------------------|------------------|------------------|------------------| ------------------|------------------|------------------|------------------| ------------------|------------------|------------------|------------------| ------------------|------------------|------------------|------------------| ------------------|------------------|------------------|------------------| ------------------|------------------|------------------|------------------| ------------------|------------------|------------------|------------------| ------------------|------------------|------------------|------------------| ------------------|------------------|------------------|------------------| ------------------|------------------|------------------|------------------| ------------------|------------------|------------------|------------------| ------------------|------------------|------------------|------------------| ------------------|------------------|------------------|------------------| ------------------|------------------|------------------|------------------| ------------------|------------------|------------------|------------------| ------------------|------------------|------------------|------------------| ------------------|------------------|------------------|------------------| ------------------|------------------|------------------|------------------| ------------------|------------------|------------------|------------------| ------------------|------------------|------------------|------------------| ------------------|------------------|------------------|------------------| ------------------|------------------|------------------|------------------| ------------------|------------------|------------------|------------------| ------------------|------------------|------------------|------------------| ------------------|------------------|------------------|------------------| ------------------|------------------|------------------|------------------| ------------------|------------------|------------------|------------------| ------------------|------------------|------------------|------------------| ------------------|------------------|------------------|------------------| ------------------|------------------|------------------|------------------| ------------------|------------------|------------------|------------------| ------------------|------------------|------------------|------------------| ------------------|------------------|------------------|------------------| ------------------|------------------|------------------|------------------| ------------------|------------------|------------------|------------------| ------------------|------------------|------------------|------------------| ------------------|------------------|------------------|------------------| ------------------|------------------|------------------|------------------| ------------------|------------------|------------------|------------------| ------------------|------------------|------------------|------------------| ------------------|------------------|------------------|------------------| ------------------|------------------|------------------|------------------| ------------------|------------------|------------------|------------------| ------------------|------------------|------------------|------------------| ------------------|------------------|------------------|------------------| ------------------|------------------|------------------|------------------| ------------------|------------------|------------------|------------------| ------------------|------------------|------------------|------------------| ------------------|------------------|------------------|------------------| ------------------|------------------|------------------|------------------| ------------------|------------------|------------------|------------------| ------------------|------------------|------------------|------------------| ------------------|------------------|------------------|------------------| ------------------|------------------|------------------|------------------| ------------------|------------------|------------------|------------------| ------------------|------------------|------------------|------------------| ------------------|------------------|------------------|------------------| ------------------|------------------|------------------|------------------| ------------------|------------------|------------------|------------------| ------------------|------------------|------------------|------------------| ------------------|------------------|------------------|| ------------------|------------------|------------------|| ------------------|------------------|------------------|| ------------------|------------------|------------------|| ------------------|------------------|------------------|| ------------------|------------------|------------------||

    лекарство в аптеке
    список лекарств






    О сайтеАккордыХит-парадПоискУроки ФорумыИщу песню
    ПрограммыСвежачок-сПодпискаСтатьи
    Яндекс.Метрика