Табулатура Nightwish | End Of All Hope  (2) гитара табулатуры уроки тексты песен Nightwish текст lyrics песня аккорды песни ноты нота электрогитара струна  
   А Б В Г Д Е Ж З И К Л М Н О П Р С Т У Ф Х Ч Ш Ы Э Ю Я       Разные песни
1-9 A B C D E F G H I J K L M N O P Q R S T U V W Y Z      Все исполнители in english

    



группа Nightwish, Табулатура песни End Of All Hope (2)

Работа в Европе для граждан РФ, Украины, СНГ

  • минимальная зарплата $500.
  • виза и контракт на полгода, возможно продление
  • проживание оплачивает работодатель
  • нужен только загранпаспорт
  • оформление 190 €
  • данное предложение - отличная возможность эмигрировать в Европу и закрепиться здесь навсегда.

  • Мы свяжемся с Вами по WhatsApp или Viber и ответим на любые вопросы.
    на нашем сайте можно почитать подробнее »

    Группа: Nightwish - другие аккорды (414),   о группе (12 статей),   диски (6),   фотографии (25)
    Табулатура песни: End Of All Hope (2)
    Просмотров: 2121
    Прислал: Forever (forever@akkords.ru)




        
                                    End Of All Hope                                 
    
                                                                           Nightwish
    Guitar 2.
    
                                                                                   
    E||------------------|------------------|------------------|------------------|
    B||------------------|------------------|------------------|------------------|
    G||------------------|------------------|------------------|------------------|
    D||------------------|------------------|------------------|------------------|
    A||------------------|------------------|------------------|------------------|
    E||------------------|------------------|------------------|------------------|
    
                                                                                
    ------------------|------------------|------------------|------------------|
    ------------------|------------------|------------------|------------------|
    ------------------|------------------|------------------|------------------|
    ------------------|------------------|------------------|------------------|
    ------------------|------------------|------------------|------------------|
    ------------------|------------------|------------------|------------------|
    
                                                                                
    ------------------|------------------|------------------|------------------|
    ------------------|------------------|------------------|------------------|
    ------------------|------------------|------------------|------------------|
    ------------------|------------------|------------------|------------------|
    ------------------|------------------|------------------|------------------|
    ------------------|------------------|------------------|------------------|
    
                                                                                
    ------------------|------------------|------------------|------------------|
    ------------------|------------------|------------------|------------------|
    ------------------|------------------|------------------|------------------|
    ------------------|------------------|------------------|------------------|
    ------------------|------------------|------------------|------------------|
    ------------------|------------------|------------------|------------------|
    
                                                                
    -----------------------------|-----------------------------|
    -----------------------------|-----------------------------|
    -----------------------------|-------------------10--------|
    -----------------7--8--7-----|----------8--7--8------8--7--|
    ----------8--10-----------8--|-----------------------------|
    -----------------------------|-----------------------------|
    
                                                                      
    -----------------------------|-----------------------------------|
    -----------------------------|-----------------------------------|
    -----------------------------|--8----8--8--7--5--5---------------|
    -----------------7--8--7-----|------------------------10--8--10--|
    ----------8--10-----------8--|-----------------------------------|
    -----------------------------|-----------------------------------|
    
                                                                
    -----------------------------|-----------------------------|
    -----------------------------|-----------------------------|
    -----------------------------|-------------------10--------|
    -----------------7--8--7-----|----------8--7--8------8--7--|
    ----------8--10-----------8--|-----------------------------|
    -----------------------------|-----------------------------|
    
                                                                      
    -----------------------------|-----------------------------------|
    -----------------------------|-----------------------------------|
    -----------------------------|--8----8--8--7--5--5---------------|
    -----------------7--8--7-----|------------------------10--8--10--|
    ----------8--10-----------8--|-----------------------------------|
    -----------------------------|-----------------------------------|
    
                                                                             
    ----------------------------------|------------------|------------------|
    ----------------------------------|------------------|------------------|
    --7--5-----5----------------------|------------------|------------------|
    --------8-----8--7--5--5--5--5----|------------------|------------------|
    ----------------------------------|------------------|------------------|
    ----------------------------------|------------------|------------------|
    
                                                                                
    ------------------|------------------|------------------|------------------|
    ------------------|------------------|------------------|------------------|
    ------------------|------------------|------------------|------------------|
    ------------------|------------------|------------------|------------------|
    ------------------|------------------|------------------|------------------|
    ------------------|------------------|------------------|------------------|
    
                                                             
    ------------------|------------------|------------------|
    ------------------|------------------|------------------|
    ------------------|------------------|------------------|
    ------------------|------------------|------------------|
    ------------------|------------------|------------------|
    ------------------|------------------|------------------|
    
                                                     
    -----------------------------|------------------|
    -----------------------------|------------------|
    -----------------------------|------------------|
    -----------------7--8--7-----|------------------|
    ----------8--10-----------8--|------------------|
    -----------------------------|------------------|
    
                                                                           
    --------------------------------|------------------|------------------|
    --------------------------------|------------------|------------------|
    --------------------------------|------------------|------------------|
    ------------------8--11--8------|------------------|------------------|
    ----------10--12------------12--|------------------|------------------|
    --------------------------------|------------------|------------------|
    
                                                                                
    ------------------|------------------|------------------|------------------|
    ------------------|------------------|------------------|------------------|
    ------------------|------------------|------------------|------------------|
    ------------------|------------------|------------------|------------------|
    ------------------|------------------|------------------|------------------|
    ------------------|------------------|------------------|------------------|
    
                                                                                
    ------------------|------------------|------------------|------------------|
    ------------------|------------------|------------------|------------------|
    ------------------|------------------|------------------|------------------|
    ------------------|------------------|------------------|------------------|
    ------------------|------------------|------------------|------------------|
    ------------------|------------------|------------------|------------------|
    
                                                                        
    ------------------|------------------|-----------------------------|
    ------------------|------------------|-----------------------------|
    ------------------|------------------|-----------------------------|
    ------------------|------------------|-----------------7--8--7-----|
    ------------------|------------------|----------8--10-----------8--|
    ------------------|------------------|-----------------------------|
    
                                                                
    -----------------------------|-----------------------------|
    -----------------------------|-----------------------------|
    -------------------10--------|-----------------------------|
    ----------8--7--8------8--7--|-----------------7--8--7-----|
    -----------------------------|----------8--10-----------8--|
    -----------------------------|-----------------------------|
    
                                                                                
    -----------------------------------|--------------------|------------------|
    -----------------------------------|--------------------|------------------|
    --8----8--8--7--5--5---------------|--7--5-----5--------|------------------|
    ------------------------10--8--10--|--------8-----8--7--|------------------|
    -----------------------------------|--------------------|------------------|
    -----------------------------------|--------------------|------------------|
    
                                                     
    -----------------------------|------------------|
    -----------------------------|------------------|
    -----------------------------|------------------|
    -----------------7--8--7-----|------------------|
    ----------8--10-----------8--|------------------|
    -----------------------------|------------------|
    
                                                                           
    --------------------------------|------------------|------------------|
    --------------------------------|------------------|------------------|
    --------------------------------|------------------|------------------|
    ------------------8--11--8------|------------------|------------------|
    ----------10--12------------12--|------------------|------------------|
    --------------------------------|------------------|------------------|
    
                                                                                
    ------------------|------------------|------------------|------------------|
    ------------------|------------------|------------------|------------------|
    ------------------|------------------|------------------|------------------|
    ------------------|------------------|------------------|------------------|
    ------------------|------------------|------------------|------------------|
    ------------------|------------------|------------------|------------------|
    
                                                                                
    ------------------|------------------|------------------|------------------|
    ------------------|------------------|------------------|------------------|
    ------------------|------------------|------------------|------------------|
    ------------------|------------------|------------------|------------------|
    ------------------|------------------|------------------|------------------|
    ------------------|------------------|------------------|------------------|
    
                                                                                
    ------------------|------------------|------------------|------------------|
    ------------------|------------------|------------------|------------------|
    ------------------|------------------|------------------|------------------|
    ------------------|------------------|------------------|------------------|
    ------------------|------------------|------------------|------------------|
    ------------------|------------------|------------------|------------------|
    
                                                                                
    
    Узнай ВСЕ о своем друге в ВК или FB
    ------------------|------------------|------------------|------------------| ------------------|------------------|------------------|------------------| ------------------|------------------|------------------|------------------| ------------------|------------------|------------------|------------------| ------------------|------------------|------------------|------------------| ------------------|------------------|------------------|------------------| ------------------|------------------|------------------|------------------| ------------------|------------------|------------------|------------------| ------------------|------------------|------------------|------------------| ------------------|------------------|------------------|------------------| ------------------|------------------|------------------|------------------| ------------------|------------------|------------------|------------------| ------------------|------------------|------------------|------------------| ------------------|------------------|------------------|------------------| ------------------|------------------|------------------|------------------| ------------------|------------------|------------------|------------------| ------------------|------------------|------------------|------------------| ------------------|------------------|------------------|------------------| ------------------|------------------|------------------|------------------| ------------------|------------------|------------------|------------------| ------------------|------------------|------------------|------------------| ------------------|------------------|------------------|------------------| ------------------|------------------|------------------|------------------| ------------------|------------------|------------------|------------------| ------------------|------------------|------------------|------------------| ------------------|------------------|------------------|------------------| ------------------|------------------|------------------|------------------| ------------------|------------------|------------------|------------------| ------------------|------------------|------------------|------------------| ------------------|------------------|------------------|------------------| ------------------|------------------|------------------|------------------| ------------------|------------------|------------------|------------------| ------------------|------------------|------------------|------------------| ------------------|------------------|------------------|------------------| ------------------|------------------|------------------|------------------| ------------------|------------------|------------------|------------------| ------------------|------------------|------------------|------------------| ------------------|------------------|------------------|------------------| ------------------|------------------|------------------|------------------| ------------------|------------------|------------------|------------------| ------------------|------------------|------------------|------------------| ------------------|------------------|------------------|------------------| ------------------|------------------|------------------|------------------| ------------------|------------------|------------------|------------------| ------------------|------------------|------------------|------------------| ------------------|------------------|------------------|------------------| ------------------|------------------|------------------|------------------| ------------------|------------------|------------------|------------------| ------------------|------------------|------------------|------------------| ------------------|------------------|------------------|------------------| ------------------|------------------|------------------|------------------| ------------------|------------------|------------------|------------------| ------------------|------------------|------------------|------------------| ------------------|------------------|------------------|------------------| ------------------|------------------|------------------|------------------| ------------------|------------------|------------------|------------------| ------------------|------------------|------------------|------------------| ------------------|------------------|------------------|------------------| ------------------|------------------|------------------|------------------| ------------------|------------------|------------------|------------------| ------------------|------------------|--5-------------------------------------| ------------------|------------------|-----6-----10-----10-----5--6--5--6--8--| ------------------|------------------|--------7------7------7-----------------| ------------------|------------------|----------------------------------------| ------------------|------------------|----------------------------------------| ------------------|------------------|----------------------------------------| ----------------------13--12----13--| --10----8----10--8------------------| ------------------------------------| ------------------------------------| ------------------------------------| ------------------------------------| --12--13--15----------12--------------------------| --------------13--15----------13------------------| --------------------------14------14--13--12--10--| --------------------------------------------------| --------------------------------------------------| --------------------------------------------------| --13--------15--------13----------12----|--10------------8----10-| --------13--------15--15----13----13----|--11------------10---11-| ----------------------------14----------|------------------------| ----------------------------------------|------------------------| ----------------------------------------|------------------------| ----------------------------------------|------------------------| --8----------------|------------------|------------------|------------------| --8----------------|------------------|------------------|------------------| -------------------|------------------|------------------|------------------| -------------------|------------------|------------------|------------------| -------------------|------------------|------------------|------------------| -------------------|------------------|------------------|------------------| ------------------|------------------|------------------|------------------| ------------------|------------------|------------------|------------------| ------------------|------------------|------------------|------------------| ------------------|------------------|------------------|------------------| ------------------|------------------|------------------|------------------| ------------------|------------------|------------------|------------------| ------------------|------------------|------------------|------------------| ------------------|------------------|------------------|------------------| ------------------|------------------|------------------|------------------| ------------------|------------------|------------------|------------------| ------------------|------------------|------------------|------------------| ------------------|------------------|------------------|------------------| ------------------|------------------|------------------|------------------| ------------------|------------------|------------------|------------------| ------------------|------------------|------------------|------------------| ------------------|------------------|------------------|------------------| ------------------|------------------|------------------|------------------| ------------------|------------------|------------------|------------------| ------------------|------------------|------------------|------------------| ------------------|------------------|------------------|------------------| ------------------|------------------|------------------|------------------| ------------------|------------------|------------------|------------------| ------------------|------------------|------------------|------------------| ------------------|------------------|------------------|------------------| ------------------|------------------|------------------|------------------| ------------------|------------------|------------------|------------------| ------------------|------------------|------------------|------------------| ------------------|------------------|------------------|------------------| ------------------|------------------|------------------|------------------| ------------------|------------------|------------------|------------------| ------------------|------------------|------------------|------------------| ------------------|------------------|------------------|------------------| ------------------|------------------|------------------|------------------| ------------------|------------------|------------------|------------------| ------------------|------------------|------------------|------------------| ------------------|------------------|------------------|------------------| ------------------|------------------|------------------|------------------| ------------------|------------------|------------------|------------------| ------------------|------------------|------------------|------------------| ------------------|------------------|------------------|------------------| ------------------|------------------|------------------|------------------| ------------------|------------------|------------------|------------------| ------------------|------------------|------------------|| ------------------|------------------|------------------|| ------------------|------------------|------------------|| ------------------|------------------|------------------|| ------------------|------------------|------------------|| ------------------|------------------|------------------||

    найти лекарство
    список лекарств






    О сайтеАккордыХит-парадПоискУроки ФорумыИщу песню
    ПрограммыСвежачок-сПодпискаСтатьи
    Яндекс.Метрика