Табулатура Nightwish | The Phantom Of The Opera  (2) гитара табулатуры уроки тексты песен Nightwish текст lyrics песня аккорды песни ноты нота электрогитара струна  
   А Б В Г Д Е Ж З И К Л М Н О П Р С Т У Ф Х Ч Ш Ы Э Ю Я       Разные песни
1-9 A B C D E F G H I J K L M N O P Q R S T U V W Y Z      Все исполнители in english

    



группа Nightwish, Табулатура песни The Phantom Of The Opera (2)

Работа в Европе для граждан РФ, Украины, СНГ

  • минимальная зарплата $500.
  • виза и контракт на полгода, возможно продление
  • проживание оплачивает работодатель
  • нужен только загранпаспорт
  • оформление 190 €
  • данное предложение - отличная возможность эмигрировать в Европу и закрепиться здесь навсегда.

  • Мы свяжемся с Вами по WhatsApp или Viber и ответим на любые вопросы.
    на нашем сайте можно почитать подробнее »

    Группа: Nightwish - другие аккорды (414),   о группе (12 статей),   диски (6),   фотографии (25)
    Табулатура песни: The Phantom Of The Opera (2)
    Просмотров: 1306
    Прислал: Forever (forever@akkords.ru)




        
                                 Phantom Of The Opera                               
    
                                                 
    Guitar2
    
                                                                      
    D||------------------|------------------|------------------------|
    A||------------------|------------------|------------------------|
    F||------------------|------------------|------------------------|
    C||------------------|------------------|------------------------|
    G||------------------|------------------|----------5-6---6-7-8-9-|
    D||------------------|------------------|----------3-4---4-5-6-7-|
    
                                                                                   
    ----------------------------|----------------------------|--------------------|
    ----------------------------|----------------------------|--------------------|
    ----------------------------|----------------------------|--------------------|
    ----------------------------|----------------------------|--------------------|
    --10------------10-9--8--7--|--6--------5-6---6-7--8--9--|--10----------------|
    --8-------------8--7--6--5--|--4--------3-4---4-5--6--7--|--8-----------------|
    
                                                                                
    ------------------|------------------|------------------|------------------|
    ------------------|------------------|------------------|------------------|
    ------------------|------------------|------------------|------------------|
    ------------------|------------------|------------------|------------------|
    ------------------|------------------|------------------|------------------|
    ------------------|------------------|------------------|------------------|
    
                                                                 
    --------------------|---------------------------------------|
    --------------------|---------------------------------------|
    --------------------|---------------------------------------|
    --6--------8--------|--10-----------------------8-----------|
    --6--------8--------|--10--------10--10-10--10----10--11-10-|
    --4--------6--------|--8---------8------8---8-----8---------|
    
                                                                          
    --------------------|-------------------|----------------------------|
    --------------------|-------------------|----------------------------|
    --------------------|-------------------|----------------------------|
    --10----------------|--6----------------|----------------------------|
    --10----------------|--6----------------|--10------------10-9--8--7--|
    --8-----------------|--4----------------|--8-------------8--7--6--5--|
    
                                                                        
    ----------------------------|-------------------|------------------|
    ----------------------------|-------------------|------------------|
    ----------------------------|-------------------|------------------|
    ----------------------------|-------------------|------------------|
    --6--------5-6---6-6--6--6--|--3----------------|------------------|
    --4--------3-4---4-4--4--4--|--1----------------|------------------|
    
                                                                                  
    ------------------|------------------|------------------|--------------------|
    ------------------|------------------|------------------|--------------------|
    ------------------|------------------|------------------|--6--------8--------|
    ------------------|------------------|------------------|--6--------8--------|
    ------------------|------------------|------------------|--4--------6--------|
    ------------------|------------------|------------------|--------------------|
    
                                                                 
    ---------------------------------------|--------------------|
    ---------------------------------------|--------------------|
    --10-----------------------8-----------|--10----------------|
    --10--------10--10-10--10----10--11-10-|--10----------------|
    --8---------8------8---8-----8---------|--8-----------------|
    ---------------------------------------|--------------------|
    
                                                                          
    -------------------|----------------------------|--------------------|
    -------------------|----------------------------|--------------------|
    --6----------------|----------------------------|--------------------|
    --6----------------|--10------------10-9--8--7--|--6--------5--------|
    --4----------------|--8-------------8--7--6--5--|--4--------3--------|
    -------------------|----------------------------|--------------------|
    
                                                                                 
    -------------------|------------------|------------------|------------------|
    -------------------|------------------|------------------|------------------|
    -------------------|------------------|------------------|------------------|
    --7----------------|------------------|------------------|------------------|
    --5----------------|------------------|------------------|------------------|
    -------------------|------------------|------------------|------------------|
    
                                            
    ------------------|--------------------|
    ------------------|--------------------|
    ------------------|--3--------5--------|
    ------------------|--3--------5--------|
    ------------------|--1--------3--------|
    ------------------|--------------------|
    
                                                  
    ---------------------------------------------|
    ---------------------------------------------|
    ---------------------------------------------|
    --7-7--7--7--10-10--9-9--8-7--7--7--10-9-8-7-|
    --5-5--5--5--8--8---7-7--6-5--5--5--8--7-6-5-|
    ---------------------------------------------|
    
                                                                                  
    --------------------------------------|--------------------------------------|
    --------------------------------------|--------------------------------------|
    --------------------------------------|--3--------3--------3--------3--------|
    --7--7--7--7--7--7--7--7--7--7--7--7--|--3--3--3--3--3--3--3--3--3--3--3--3--|
    --5--5--5--5--5--5--5--5--5--5--5--5--|--1--1--1--1--1--1--1--1--1--1--1--1--|
    --------------------------------------|--------------------------------------|
    
                                                                                
    -------------------------------------|-------------------------------------|
    -------------------------------------|-------------------------------------|
    --7--------7--------7--------7-6-5-4-|--3--------3--------3--------3-4-5-6-|
    --7--7--7--7--7--7--7--7--7--7-6-5-4-|--3--3--3--3--3--3--3--3--3--3-4-5-6-|
    --5--5--5--5--5--5--5--5--5--5-4-3-2-|--1--1--1--1--1--1--1--1--1--1-2-3-4-|
    -------------------------------------|-------------------------------------|
    
                                                                                 
    -------------------------------------|--------------------------------------|
    -------------------------------------|--------------------------------------|
    --7--------7--------7--------7-6-5-4-|--3--------3--------2--------2--------|
    
    Узнай ВСЕ о своем друге в ВК или FB
    --7--7--7--7--7--7--7--7--7--7-6-5-4-|--3--3--3--3--3--3--2--2--2--2--2--2--| --5--5--5--5--5--5--5--5--5--5-4-3-2-|--1--1--1--1--1--1--0--0--0--0--0--0--| -------------------------------------|--------------------------------------| -----------------------|------------------------|------------------------| -----------------------|------------------------|------------------------| -----------------------|------------------8-----|--6---4-4~--------6-----| --8-------6-8-----6--6-|--8-------6-8--8------8-|---------------6------6-| --6-------4-6-----4--4-|--6-------4-6-----------|------------------------| -----------------------|------------------------|------------------------| ----------------------|------------------------|----------------------| ----------------------|------------------------|----------------------| ----------------8-----|--6---4-4~--------6-----|----------------------| --8~---------8------8-|---------------6------6-|--8-------------4--8--| ----------------------|------------------------|-------------4--------| ----------------------|------------------------|----------------------| --------------------|------------------------------------------| --------------------|------------------------------------------| --4--------6--------|--8---------------------------------------| --4--------6--------|--8-8--8--8--8----7----6----4-3-4--4-6--6-| --2--------4--------|--6-6--6--6--6-6--5-5--4-4--2-1-2--2-4--4-| --------------------|------------------------------------------| --------------------------------------|--------------------------------------| --------------------------------------|--------------------------------------| --8--------8--------8--------8--------|--4--------4--------4--------4--------| --8--8--8--8--8--8--8--8--8--8--8--8--|--4--4--4--4--4--4--4--4--4--4--4--4--| --6--6--6--6--6--6--6--6--6--6--6--6--|--2--2--2--2--2--2--2--2--2--2--2--2--| --------------------------------------|--------------------------------------| -------------------------------------|-------------------------------------| -------------------------------------|-------------------------------------| --8--------8--------8--------8-7-6-5-|--4--------4--------4--------4-5-6-7-| --8--8--8--8--8--8--8--8--8--8-7-6-5-|--4--4--4--4--4--4--4--4--4--4-5-6-7-| --6--6--6--6--6--6--6--6--6--6-5-4-3-|--2--2--2--2--2--2--2--2--2--2-3-4-5-| -------------------------------------|-------------------------------------| -------------------------------------|--------------------------------------| -------------------------------------|--------------------------------------| --8--------8--------8--------8-7-6-5-|--4--------4--------4--------4--------| --8--8--8--8--8--8--8--8--8--8-7-6-5-|--4--4--4--4--4--4--4--4--4--4--4--4--| --6--6--6--6--6--6--6--6--6--6-5-4-3-|--2--2--2--2--2--2--2--2--2--2--2--2--| -------------------------------------|--------------------------------------| |-------------------------------------------| |-------------------------------------------| |*------------------------------------------| |*--5-5--5--5--5-5--4-3-5-5--5--5--5-5--4-3-| |---3-3--3--3--3-3--3-3-3-3--3--3--3-3--3-3-| |-------------------------------------------| -------------------------------------------|| -------------------------------------------|| ------------------------------------------*|| --5-5--5--5--5-5--4-3-5-5--5--5--5-5--4-3-*|| --3-3--3--3--3-3--3-3-3-3--3--3--3-3--3-3--|| -------------------------------------------|| -------------------------------------------| -------------------------------------------| *------------------------------------------| *--7-7--7--7--7-7--6-5-7-7--7--7--7-7--6-5-| ---5-5--5--5--5-5--5-5-5-5--5--5--5-5--5-5-| -------------------------------------------| -------------------------------------------|| -------------------------------------------|| ------------------------------------------*|| --7-7--7--7--7-7--6-5-7-7--7--7--7-7--6-5-*|| --5-5--5--5--5-5--5-5-5-5--5--5--5-5--5-5--|| -------------------------------------------|| ------------------------------------------| ------------------------------------------| ------------------------------------------| --7-7--7--7--7-7--6-5-7-7--7--7--7-7--6-5-| --5-5--5--5--5-5--5-5-5-5--5--5--5-5--5-5-| ------------------------------------------| ------------------------------------------| ------------------------------------------| ------------------------------------------| --7-7--7--7--7-7--6-5-7-7--7--7--7-7--6-5-| --5-5--5--5--5-5--5-5-5-5--5--5--5-5--5-5-| ------------------------------------------| ------------------------------------------| ------------------------------------------| ------------------------------------------| --7-7--7--7--7-7--6-5-7-7--7--7--7-7--6-5-| --5-5--5--5--5-5--5-5-5-5--5--5--5-5--5-5-| ------------------------------------------| ------------------------------------------|------------------|| ------------------------------------------|------------------|| ------------------------------------------|------------------|| --7-7--7--7--7-7--6-5-7-7--7--7--7-7--7-7-|------------------|| --5-5--5--5--5-5--5-5-5-5--5--5--5-5--5-5-|------------------|| ------------------------------------------|------------------||

    лекарство в аптеке
    список лекарств






    О сайтеАккордыХит-парадПоискУроки ФорумыИщу песню
    ПрограммыСвежачок-сПодпискаСтатьи
    Яндекс.Метрика