Басовая табулатура Nightwish | The Phantom Of The Opera гитара табулатуры уроки тексты песен Nightwish текст lyrics песня аккорды песни ноты нота электрогитара струна  
   А Б В Г Д Е Ж З И К Л М Н О П Р С Т У Ф Х Ч Ш Ы Э Ю Я       Разные песни
1-9 A B C D E F G H I J K L M N O P Q R S T U V W Y Z      Все исполнители in english

    



группа Nightwish, Басовая табулатура песни The Phantom Of The Opera

Продолжаем грести бабос на ботах в Telegram.
Только в этот раз есть вариант автоматизировать это дело, привлекая рефералов. Вы можете заработать если »

Группа: Nightwish - другие аккорды (414),   о группе (12 статей),   диски (6),   фотографии (25)
Басовая табулатура песни: The Phantom Of The Opera
Просмотров: 1103
Прислал: Forever (forever@akkords.ru)




    
                             Phantom Of The Opera                               

                                             
Bass

                                                                  
F||------------------|------------------|------------------------|
C||------------------|------------------|------------------------|
G||------------------|------------------|------------------------|
D||------------------|------------------|----------3-4---4-5-6-7-|

                                                                      
----------------------------------|----------------------------------|
----------------------------------|----------------------------------|
----------------------------------|----------------------------------|
--8-8-8-8-8-8-8-8-8-8-8-8-8-7-6-5-|--4-4-4-4-4-4-4-4-3-4-4-4-4-5-6-7-|

                                                             
-------------------|--------------------|-------------------|
-------------------|--------------------|-------------------|
-------------------|-----------1--------|--3----------------|
--8----------------|--4-----------------|-------------------|

                                                                            
--------------------|-------------------|----------------------------------|
--------------------|-------------------|----------------------------------|
-----------1--------|--3----------------|------------------1-1-1-1-1-1-1-1-|
--4-----------------|-------------------|--4-4-4-4-4-4-4-4-----------------|

                                                                           
----------------------------------|-------------------|-------------------|
----------------------------------|-------------------|-------------------|
--3-3-3-3-3-3-3-3-3-3-3-3-3-3-3-3-|--3----------------|-------------------|
----------------------------------|-------------------|--4----------------|

                                                                      
----------------------------------|----------------------------------|
----------------------------------|----------------------------------|
----------------------------------|----------------------------------|
--8-8-8-8-8-8-8-8-8-8-8-8-8-7-6-5-|--4-4-4-4-4-4-4-4-3-4-4-4-4-4-4-4-|

                                                             
-------------------|--------------------|-------------------|
-------------------|-----------1--------|--3----------------|
-------------------|--4-----------------|-------------------|
--1----------------|--------------------|-------------------|

                                                                            
--------------------|-------------------|----------------------------------|
-----------1--------|--3----------------|------------------1-1-1-1-1-1-1-1-|
--4-----------------|-------------------|--4-4-4-4-4-4-4-4-----------------|
--------------------|-------------------|----------------------------------|

                                                                           
----------------------------------|-------------------|-------------------|
--3-3-3-3-3-3-3-3-3-3-3-3-3-3-3-3-|--3----------------|-------------------|
----------------------------------|-------------------|--4----------------|
----------------------------------|-------------------|-------------------|

                                                                      
----------------------------------|----------------------------------|
----------------------------------|----------------------------------|
--8-8-8-8-8-8-8-8-8-8-8-8-8-7-6-5-|--4-4-4-4-4-4-4-4-3-3-3-3-3-3-3-3-|
----------------------------------|----------------------------------|

                                                             
-------------------|--------------------|-------------------|
-------------------|--------------------|-------------------|
--5----------------|--1--------3--------|--5----------------|
-------------------|--------------------|-------------------|

                                                                            
--------------------|-------------------|----------------------------------|
--------------------|-------------------|----------------------------------|
--1--------3--------|--5----------------|--1-1-1-1-1-1-1-1-3-3-3-3-3-3-3-3-|
--------------------|-------------------|----------------------------------|

                                                                  
----------------------------------|------------------------------|
--0-0-0-0-0-0-0-0-0-0-0-0-0-0-0-0-|------------------------------|
----------------------------------|--5--5-5-5--5-5-5--5-5-5--5-5-|
----------------------------------|------------------------------|

                                                               
------------------------------|-------------------------------|
------------------------------|-------------------------------|

Продолжаем грести бабос на ботах в Telegram.
Только в этот раз есть вариант автоматизировать это дело, привлекая рефералов. Вы можете заработать если »

--1--1-1-1--1-1-1--1-1-1--1-1-|--5--5-5-5--5-5-5--5-5-5-4-3-2-| ------------------------------|-------------------------------| -------------------------------|-------------------------------| -------------------------------|-------------------------------| --1--1-1-1--1-1-1--1-1-1-2-3-4-|--5--5-5-5--5-5-5--5-5-5-4-3-2-| -------------------------------|-------------------------------| ------------------------------|-----------------------|---------------------| ------------------------------|-----------------------|---------------------| --1--1-1-1--1-1-0--0-0-0--0-0-|--6-------4-6-----4--4-|--6-------4-6--------| ------------------------------|-----------------------|---------------------| ----------------------------------|----------------------------------| ----------------------------------|----------------------------------| --2-2-2-2-2-2-2-2-4-4-4-4-4-4-4-4-|--6-6-6-6-6-6-6-6-6-6-6-6-6-6-6-6-| ----------------------------------|----------------------------------| ----------------------------------|----------------------------------| ----------------------------------|----------------------------------| --2-2-2-2-2-2-2-2-4-4-4-4-4-4-4-4-|--6-6-6-6-6-6-6-6-6-6-6-6-6-6-6-6-| ----------------------------------|----------------------------------| ----------------------------------|----------------------------------| ----------------------------------|----------------------------------| --2-2-2-2-2-2-2-2-4-4-4-4-4-4-4-4-|--6-6-6-6-6-6-6-6-6-6-6-6-6-6-6-6-| ----------------------------------|----------------------------------| ------------------------------|------------------------------| ------------------------------|------------------------------| --6--6-6-6--6-6-6--6-6-6--6-6-|--2--2-2-2--2-2-2--2-2-2--2-2-| ------------------------------|------------------------------| -------------------------------|-------------------------------| -------------------------------|-------------------------------| --6--6-6-6--6-6-6--6-6-6-5-4-3-|--2--2-2-2--2-2-2--2-2-2-3-4-5-| -------------------------------|-------------------------------| -------------------------------|------------------------------| -------------------------------|------------------------------| --6--6-6-6--6-6-6--6-6-6-5-4-3-|--2--2-2-2--2-2-2--2-2-2--2-2-| -------------------------------|------------------------------| |-----------------------------------|-----------------------------------|| |*----------5---4-3---------5---4-3-|----------5---4-3---------5---4-3-*|| |*--3-3-3-3---3-----3-3-3-3---3-----|--3-3-3-3---3-----3-3-3-3---3-----*|| |-----------------------------------|-----------------------------------|| -----------------------------------|-----------------------------------|| *----------7---6-5---------7---6-5-|----------7---6-5---------7---6-5-*|| *--5-5-5-5---5-----5-5-5-5---5-----|--5-5-5-5---5-----5-5-5-5---5-----*|| -----------------------------------|-----------------------------------|| ----------------------------------|----------------------------------| ----------7---6-5---------7---6-5-|----------7---6-5---------7---6-5-| --5-5-5-5---5-----5-5-5-5---5-----|--5-5-5-5---5-----5-5-5-5---5-----| ----------------------------------|----------------------------------| ----------------------------------|----------------------------------| ----------7---6-5---------7---6-5-|----------7---6-5---------7---6-5-| --5-5-5-5---5-----5-5-5-5---5-----|--5-5-5-5---5-----5-5-5-5---5-----| ----------------------------------|----------------------------------| ------------------|| ------------------|| ------------------|| ------------------||

лекарство в аптеке
список лекарств






О сайтеАккордыХит-парадПоискУроки ФорумыИщу песню
ПрограммыСвежачок-сПодпискаСтатьи
Яндекс.Метрика