Табулатура Radiohead | Go To Sleep  (2) гитара табулатуры уроки тексты песен Radiohead текст lyrics песня аккорды песни ноты нота электрогитара струна  
   А Б В Г Д Е Ж З И К Л М Н О П Р С Т У Ф Х Ч Ш Ы Э Ю Я       Разные песни
1-9 A B C D E F G H I J K L M N O P Q R S T U V W Y Z      Все исполнители in english

    



группа Radiohead, Табулатура песни Go To Sleep (2)

Работа в Европе для граждан РФ, Украины, СНГ

  • минимальная зарплата $500.
  • виза и контракт на полгода, возможно продление
  • проживание оплачивает работодатель
  • нужен только загранпаспорт
  • оформление 190 €
  • данное предложение - отличная возможность эмигрировать в Европу и закрепиться здесь навсегда.

  • Мы свяжемся с Вами по WhatsApp или Viber и ответим на любые вопросы.
    на нашем сайте можно почитать подробнее »

    Группа: Radiohead - другие аккорды (189),   о группе (6 статей),   диски (9),   фотографии (134)
    Табулатура песни: Go To Sleep (2)
    Просмотров: 1353
    Подобрал: Simon Hartcher




        
    #----------------------------------PLEASE NOTE---------------------------------#
    #This file is the author's own work and represents their interpretation of the #
    #song. You may only use this file for private study, scholarship, or research. #
    #------------------------------------------------------------------------------#
    GO TO SLEEP
    As recorded by Radiohead
    (From the 2003 Album HAIL TO THE THIEF)
    
    Transcribed by Simon Hartcher
     Words by Thomas Yorke Music by Thomas Yorke, Philip Selway, Edward O'Brien, Jonathan Greenwood and Colin Greenwood
    Arranged by Radiohead
     
    G5
    3 x 0 0 3 3 Bb6
    6 x 0 0 6 6 Bb6/A
    5 x 0 0 6 6 Cadd9
    8 x 0 0 8 8 
    Cadd9/B
    7 x 0 0 8 8 G7
    3 x 0 0 3 1 Ebmaj9
    x 6 0 0 6 6 F6sus2
    x 8 0 0 8 8 
    Bbadd9
    x x x 7 6 8 Cadd9(type 2)
    x x x 9 8 10 Amadd9
    x x x 5 5 7 Bb6add9
    6 5 5 5 6 6 
    C
    8 10 10 9 8 8 Aadd11
    5 x 0 0 5 5 D
    10 12 12 11 10 10 
    
    Gtr I (E A D G B E) - 'Acoustic Gtr 1'
    Gtr II (E A D G B E) - 'Electric Gtr 2'
    Gtr III (E A D G B E) - 'Electric Gtr 3'
    Gtr IV (E A D G B E) - 'Electric Gtr 2 - Distortion'
    
     Intro
      Q=153
      G5                Bb6   Bb6/A   Cadd9 Cadd9/B
     4/4               6/8
      Gtr I
      E E E E E E E E   E E E E E E   E E E E E E
    |-----------3-----|-------------|-------------|
    |-----------3-----|-----6-----6-|-----8---8---|
    |-----0-----0---0-|---0-0---0-0-|---0-0---0-0-|
    |-----0-0-0---0-0-|---0-----0---|---0-------0-|
    |-------------0---|-------------|-------------|
    |-1s3---3-3-------|-6-----5-----|-8-----7-----|
    
      G5                Bb6   Bb6/A   Cadd9 Cadd9/B
     4/4               6/8
      E E E E E E E E   E E E E E E   E E E E E E
    |---------3-1---0-|-------------|-------------|
    |-----3---3-3-----|-----6-----6-|-----8---8---|
    |-----0---0-------|---0-0---0-0-|---0-0---0-0-|
    |-0-0-0-0-----0---|---0-----0---|---0-------0-|
    |-----------------|-------------|-------------|
    |-3-3---3-----3---|-6-----5-----|-8-----7-----|
    
      G5              Bb6   Bb6/A   Cadd9 Cadd9/B
     4/4             6/8
      Q  Q  E E E E   E E E E E E   E E E E E E
    |----3----3-----|-------------|-------------|
    |----3----3-3---|-----6-----6-|-----8---8---|
    |----0----0-0-0-|---0-0---0-0-|---0-0---0-0-|
    |-0--0--0-0-0-0-|---0-----0---|---0-------0-|
    |---------------|-------------|-------------|
    |-3-----3-------|-6-----5-----|-8-----7-----|
    
      G5              Bb6   Bb6/A   Cadd9 Cadd9/B
     4/4             6/8
      Q  Q  E E E E   E E E E E E   E E E E E E
    |----3--3-1---0-|-------------|-------------|
    |----3--3-3-----|-----6-----6-|-----8---8---|
    |----0--0-------|---0-0---0-0-|---0-0---0-0-|
    |-0--0------0---|---0-----0---|---0-------0-|
    |---------------|-------------|-------------|
    |-3---------3---|-6-----5-----|-8-----7-----|
    
       Verse
       4/4             6/8
        Q  Q  E E E E   E E E E E E   E E E E E E
    ||-----3----3-----|-------------|-------------|
    ||o----3----3-3---|-----6-----6-|-----8---8---|
    ||-----0----0-0-0-|---0-0---0-0-|---0-0---0-0-|
    ||--0--0--0-0-0-0-|---0-----0---|---0-------0-|
    ||o---------------|-------------|-------------|
    ||--3-----3-------|-6-----5-----|-8-----7-----|
    
     4/4             6/8
      Q  Q  E E E E   E E E E E E   E E E E E E
    |----3--3-1---0-|-------------|-------------|
    |----3--3-3-----|-----6-----6-|-----8---8---|
    |----0--0-------|---0-0---0-0-|---0-0---0-0-|
    |-0--0------0---|---0-----0---|---0-------0-|
    |---------------|-------------|-------------|
    |-3---------3---|-6-----5-----|-8-----7-----|
    
     4/4             6/8
      Q  Q  E E E E   E E E E E E   E E E E E E
    |----3----3-----|-----6-----6-|-----8---8---|
    |----3----3-3---|-----3-----3-|-----8---8---|
    |----0----0-0-0-|---0-0---0-0-|---0-0---0-0-|
    |-0--0--0-0-0-0-|---0-----0---|---0-------0-|
    |---------------|-------------|-------------|
    |-3-----3-------|-6-----5-----|-8-----7-----|
    
      1.
     4/4             6/8
      Q  Q  E E E E   E E E E E E   E E E E E E
    |----3----3-----|-------------|--------------||
    |----3----3-3---|-----6-----6-|-----8---8---o||
    |----0----0-0-0-|---0-0---0-0-|---0-0---0-0--||
    |-0--0--0-0-0-0-|---0-----0---|---0-------0--||
    |---------------|-------------|-------------o||
    |-3-----3-------|-6-----5-----|-8-----7------||
    
      2.
     4/4               6/8
      Q  Q   E  E E E   E  E E E  E E   E  E E E  E E
    |----3------3-----|------6------6-|------8----8---|
    |----3------3-3---|------3------3-|------8----8---|
    |----0------0-0-0-|----0-0----0-0-|----0-0----0-0-|
    |-0--0---0--0-0-0-|----0------0---|----0--------0-|
    |-----------------|---------------|---------------|
    |-3------3--------|-6------5------|-8------7------|
    |
    | Gtr II
    | Q  Q  +E  E Q     Q.     Q.       Q.     Q.
    |----3--(3)-3-3---|---------------|---------------|
    |----3--(3)-3-3---|-6------5------|-8------6------|
    |-0---------------|---------------|---------------|
    |-----------------|---------------|---------------|
    |-----------------|---------------|---------------|
    |-----------------|---------------|---------------|
    
     4/4                6/8
      Q  E E +E  E E E   E E E  E  E E   E E E  E  E E
    |----3-3-(3)-1---0-|-----6-------6-|-----8-----8---|
    |----3-3-(3)-3-----|---6-6-------6-|---8-8-----8---|
    |----0-0-(0)-------|---0-0-----0-0-|---0-0-----0-0-|
    |-0--0---------0---|-----------0---|-------------0-|
    |------------------|-6-------------|-8-------------|
    |-3------------3---|--------6------|--------8------|
    |
    | H      +E  Q   E   Q   E +Q.       Q   E +Q.
    |------------------|-----6-(6)-----|-----8-(8)-----|
    |-3------(3)-1-----|-----6-(6)-----|-----8-(8)-----|
    |------------------|-0-------------|-0-------------|
    |------------------|---------------|---------------|
    |------------------|---------------|---------------|
    |------------------|---------------|---------------|
    
       4/4                     6/8
        Q   Q     E   E  E  E    E   E  E  E   E  E    E   E  E  E   E  E
    ||------3---------3-------|---------6---------6-|---------8------8----|
    ||o-----3---------3--3----|---------3---------3-|---------8------8----|
    ||------0---------0--0--0-|------0--0------0--0-|------0--0------0--0-|
    ||--0---0-----0---0--0--0-|------0---------0----|------0------------0-|
    ||o-----------------------|---------------------|---------------------|
    ||--3---------3-----------|--6---------5--------|--8---------7--------|
    |
    |   Gtr II
    |   Q   Q    +E   E  Q       Q.        Q.          Q.        Q.
    ||------3----(3)--3--3----|---------------------|---------------------|
    ||o-----3----(3)--3--3----|--6---------5--------|--8---------6--------|
    ||--0---------------------|---------------------|---------------------|
    ||------------------------|---------------------|---------------------|
    ||o-----------------------|---------------------|---------------------|
    ||------------------------|---------------------|---------------------|
    |
    |   Gtr III
    |   Q   E  E  E   E  E  E    E   E  E  E   E  E    E   E  E  E   E  E
    ||-----15----15-----15----|-15-----15-----15----|-15-----15-----15----|
    ||o-------15-----15----15-|-----15----15-----15-|-----15----15-----15-|
    ||------------------------|---------------------|---------------------|
    ||------------------------|---------------------|---------------------|
    ||o-----------------------|---------------------|---------------------|
    ||------------------------|---------------------|---------------------|
    
     4/4                      6/8
       Q   E  E  +E   E  E E   E E  E   E  E  E     E  E  E  E  E  E
    |------3--3--(3)--1----0-|------6---------6-|---------8-----8----|
    |------3--3--(3)--3------|---6--6---------6-|------8--8-----8----|
    |------0--0--(0)---------|---0--0------0--0-|------0--0-----0--0-|
    |--0---0-------------0---|-------------0----|------------------0-|
    |------------------------|-6----------------|---8----------------|
    |--3-----------------3---|----------6-------|------------8-------|
    |
    |  H         +E   Q    E   Q    E  +Q.          Q     E +Q.
    |------------------------|------6--(6)------|---------8-(8)------|
    |--3---------(3)--1------|------6--(6)------|---------8-(8)------|
    |------------------------|-0----------------|---0----------------|
    |------------------------|------------------|--------------------|
    |------------------------|------------------|--------------------|
    |------------------------|------------------|--------------------|
    |
    |  Q.     E  +E   Q.       Q    E  +Q     E    +Q     E  Q     E
    |------------------------|------------------|--------------------|
    |-13-----13-(13)-12------|------------------|--------------------|
    |------------------------|------------------|--------------------|
    |------------------------|-----12-(12)---10-|-(10)---10-------10-|
    |------------------------|------------------|--------------------|
    |------------------------|------------------|--------------------|
    
     4/4                        6/8
        Q      Q    E   E  E E   E  E E E  E E    E  E E E  E E
    |----------3--------3------|------6------6-|-------8----8---|
    |----------3--------3--3---|------3------3-|-------8----8---|
    |----------0--------0--0-0-|----0-0----0-0-|-----0-0----0-0-|
    |---0------0----0---0--0-0-|----0------0---|-----0--------0-|
    |--------------------------|---------------|----------------|
    |---3-----------3----------|-6------5------|--8------7------|
    |
    | Gtr II
    |   Q      Q   +E   E  Q     Q.     Q.        Q.     Q.
    |----------3---(3)--3--3---|---------------|----------------|
    |----------3---(3)--3--3---|-6------5------|--8------6------|
    |---0----------------------|---------------|----------------|
    |--------------------------|---------------|----------------|
    |--------------------------|---------------|----------------|
    |--------------------------|---------------|----------------|
    |
    |  +E   E  Q   +E   Q.       Q.     Q.        Q.     Q.
    |--------------------------|---------------|----------------|
    |--------------------------|---------------|----------------|
    |--------------------------|---------------|----------------|
    |-(10)h12-12--(12)-10------|-8------7------|-10------9------|
    |--------------------------|---------------|----------------|
    |--------------------------|---------------|----------------|
    
     4/4             6/8
      Q  Q  E E E E   E E E E E E   E E E E E E
    |----3----3-----|-----6-----6-|-----8---8----||
    |----3----3-3---|-----3-----3-|-----8---8---o||
    |----0----0-0-0-|---0-0---0-0-|---0-0---0-0--||
    |-0--0--0-0-0-0-|---0-----0---|---0-------0--||
    |---------------|-------------|-------------o||
    |-3-----3-------|-6-----5-----|-8-----7------||
    
     Chorus
      Bbadd9            Cadd9(type 2)     Bbadd9            Amadd9        G5
     4/4
      Gtr I
      E E E E E E E E   E E E E E E E E   E E E E E E E E   E E E E E E E E
      | | | | | | | |   | | | | | | | |   | | | | | | | |   | | | | | | | |
      / / / / / / / /   / / / / / / / /   / / / / / / / /   / / / / / / x /
      Gtr II
      H       Q   Q     H       Q   Q     H       Q   Q     H       Q   E E
    |---------6-------|---------8-------|---------6-------|---------5-------|
    |---------6-------|---------8-------|---------6-------|---------5-------|
    |---------7-------|---------9-------|---------7-------|---------5-------|
    |-----------------|-----------------|-----------------|-----------------|
    |-----------------|-----------------|-----------------|---------------3-|
    |-----------------|-----------------|-----------------|---------------3-|
    
                       Bb6add9              G5
      +E Q   E  E  E E E   +E Q   E  E  E E E
       | |   |  |  | | |    | |   |  |  | | |
       / /   /  /  / x /    / /   /  /  / x /
       E Q.    +Q    E E    E Q.    +Q    E E
    |--------------------|--------------------|
    |--------------------|--------------------|
    |--------------------|--------------------|
    |------------------7-|----5-----(5)-------|
    |----5-----(5)-------|------------------3-|
    |----3-----(3)-----6-|----6-----(6)-----3-|
    
                       Bb6add9              G5
      +E Q   E  E  E E E   +E Q   E  E  E E E
       | |   |  |  | | |    | |   |  |  | | |
       / /   /  /  / x /    / /   /  /  / x /
       E Q.    +Q    E E    E Q.    +Q    E E
    |--------------------|---------------------|
    |--------------------|---------------------|
    |--------------------|---------------------|
    |------------------7-|----5-----(5)--------|
    |----5-----(5)-------|------------------3--|
    |----3-----(3)-----6-|----6-----(6)-----3--|
    
                       Bb6add9              C
      +E Q   E  E  E E E   +E Q   E  E  E E E
       | |   |  |  | | |    | |   |  |  | | |
       / /   /  /  / x /    / /   /  /  / x /
       E Q.    +Q    E E    E Q.    +Q    E E
    |--------------------|--------------------|
    |--------------------|--------------------|
    |--------------------|--------------------|
    |------------------7-|----5-----(5)-------|
    
    Узнай ВСЕ о своем друге в ВК или FB
    |----5-----(5)-------|------------------8-| |----3-----(3)-----6-|----6-----(6)-----8-| G5 +E Q E E E E E +E Q E E E E E | | | | | | | | | | | | | | / / / / / x / / / / / / x / E Q. +Q E E E Q E E E E E |--------------------|------------------| |--------------------|------------------| |--------------------|------------------| |--------------------|------------------| |----7-----(7)-----3-|----5--3---3---3--| |----8-----(8)-----3-|----3--3---3---3--| Bb6add9 C +E Q E E E E E +E Q E E E E E | | | | | | | | | | | | | | / / / / / x / / / / / / x / E Q. +Q E E E Q. +Q E E ||---------------------|--------------------| ||o--------------------|--------------------| ||---------------------|--------------------| ||-------------------7-|----5-----(5)-------| ||o----5-----(5)-------|------------------8-| ||-----3-----(3)-----6-|----6-----(6)-----8-| G5 Bb6add9 +E Q E E E E E +E Q E E E E E | | | | | | | | | | | | | | / / / / / x / / / / / / x / E Q. +Q E E E Q. +Q E E |--------------------|--------------------| |--------------------|--------------------| |--------------------|--------------------| |--------------------|------------------7-| |----7-----(7)-----3-|----5-----(5)-------| |----8-----(8)-----3-|----3-----(3)-----6-| C G5 +E Q E E E E E +E Q E E E E E | | | | | | | | | | | | | | / / / / / x / / / / / / x / E Q. +Q E E E Q. +Q E E |--------------------|--------------------| |--------------------|--------------------| |--------------------|--------------------| |----5-----(5)-------|--------------------| |------------------8-|----7-----(7)-----3-| |----6-----(6)-----8-|----8-----(8)-----3-| Bb6add9 C +E Q E E E E E +E Q E E E E E | | | | | | | | | | | | | | / / / / / x / / / / / / x / E Q. +Q E E E Q. +Q E E |--------------------|---------------------| |--------------------|---------------------| |--------------------|---------------------| |------------------7-|----5-----(5)--------| |----5-----(5)-------|------------------8--| |----3-----(3)-----6-|----6-----(6)-----8--| G5 Bb6add9 +E Q E E E E E +E Q E E E E E | | | | | | | | | | | | | | / / / / / x / / / / / / x / E Q. +Q E E E Q. +Q E E |--------------------|--------------------| |--------------------|--------------------| |--------------------|--------------------| |--------------------|------------------7-| |----7-----(7)-----3-|----5-----(5)-------| |----8-----(8)-----3-|----3-----(3)-----6-| C G5 +E Q E E E E E +E Q E E E E E +E Q E E E E E | | | | | | | | | | | | | | | | | | | | | / / / / / x / / / / / / x / / / / / / x / E Q. +Q E E E Q. +Q E E E Q E E E Q |--------------------|---------------------||-------------------| |--------------------|--------------------o||-------------------| |--------------------|---------------------||-------------------| |----5-----(5)-------|---------------------||-------------------| |------------------8-|----7-----(7)-----3-o||----5--3---3-------| |----6-----(6)-----8-|----8-----(8)-----3--||----3--3---3-------| Bb6 Cadd9 Gtr I E E E E E E E E E E E E E E E E | | | | | | | | | | | | | | | | / / / / / / / / / / / / / / / / Gtr IV E E E E E E E E E E E E E E E E ||--------------------------|----------------------| ||o--------8----8----8----8-|----8----8----8-----8-| ||--10b12====10---10---10---|-10---10---10---10r---| ||--------------------------|----------------------| ||o-------------------------|----------------------| ||--------------------------|----------------------| Bb6 E E E E E E E E | | | | | | | | / / / / / / / / E E E E E E E E |------------------------------| |--------13----13----13-----13-| |-15b17=====15----15----15r----| |------------------------------| |------------------------------| |------------------------------| Aadd11 G5 Bb6add9 E E E E E E E E +E E E E E E E E | | | | | | | | | | | | | | | | / / / / / / x / / / / / / / x / E E E E E E E E Q E E E E E E |------------------------------|-----------------------| |--------15----15----15-----15-|------0---------15-----| |-17b19=====17----17----17r----|------0---17b19--------| |------------------------------|---------------------7-| |------------------------------|-----------------------| |------------------------------|-----------------------| 1. G5 Bb6add9 +E E E E E E E E +E E E E E E E E +E E E E E E E E | | | | | | | | | | | | | | | | | | | | | | | | / / / / / / x / / / / / / / x / / / / / / / / / E E E E E E E E E E E E E E E E E E E E E E E E |-------------------------|-----------------------|--------------------------|| |--------6-------8--------|------0---------15-----|--------6-------8--------o|| |----5---8b10---10b12---0-|------0---17b19--------|----5---8b10---10b12---0--|| |----5------------------0-|---------------------7-|----5------------------0--|| |-------------------------|-----------------------|-------------------------o|| |-------------------------|--3--------------------|--------------------------|| Guitar Solo 2. G5 Bb6add9 C +E E E E E E E E +E E E E E E E E +E E E E E E E E | | | | | | | | | | | | | | | | | | | | | | | | / / / / / / x / / / / / / / x / / / / / / / x / E E E E E E E E E E E E E E E E E E E E E E E E |-------------------------|-----------------------|-------------------------| |--------6-------8--------|------0---------15-----|--------6-------8------8-| |----5---8b10---10b12---0-|------0---17b19--------|----5---8b10---10b12-----| |----5------------------0-|---------------------7-|----5--------------------| |-------------------------|-----------------------|-------------------------| |-------------------------|--3--------------------|-------------------------| D G5 +E E E E E E E E +E E E E E E E E | | | | | | | | | | | | | | | | / / / / / / x / / / / / / / x / E E E E E E E E E E E E E E E E |-------------------------|----------------------| |--------8----8----8----8-|----8----8----8-----8-| |-10b12====10---10---10---|-10---10---10---10r---| |-------------------------|----------------------| |-------------------------|----------------------| |-------------------------|----------------------| Bb6add9 C +E E E E E E E E +E E E E E E E E | | | | | | | | | | | | | | | | / / / / / / x / / / / / / / x / Q E E +E Q E E E H E E |---------------------|--------------------| |---------------------|--------------------| |---------------------|--------------------| |---------------------|--------------------| |--x------------------|--------------------| |--x-----6-(6)-6---3-|--3-3-3-------/10s3-| G5 Bb6add9 +E E E E E E E E +E E E E E E E E | | | | | | | | | | | | | | | | / / / / / / x / / / / / / / x / E E E E E E E E E Q E E E Q |-----------------------|--------------------| |-----------------------|--------------------| |-----------------------|---------------3----| |-----------------------|--------------------| |-----------------------|-----------x-x------| |--6s10S8s11S10s16-15s3-|--3s8-----x-x------| C G5 +E E E E E E E E +E E E E E E E E | | | | | | | | | | | | | | | | / / / / / / x / / / / / / / x / E E E E E E E E E E E E E E E E |------------------|------------------| |------------------|------------------| |------------------|------------------| |----x-x-x-x-x-x-x-|--x-x-x-x-x-x-x---| |----x-x-x-x-x-x-x-|--x-x-x-x-x-x-x-3-| |----x-x-x-x-x-x-x-|--x-x-x-x-x-x-x-3-| Bb6add9 C +E E E E E E E E +E E E E E E E E | | | | | | | | | | | | | | | | / / / / / / x / / / / / / / x / ~~~ |----3-----| |----3----| Q a H. +Q Q Q Q Q Q |-----------------------|----------------------------------| |-----------------------|----------------------------------| |-----------------------|----------------------------------| |-10--------------------|----------------------------------| |------10s17------------|-(17)---17------------------------| |-----------------------|-------------15---15---15---15----| G5 Bb6add9 +E E E E E E E E +E E E E E E E E | | | | | | | | | | | | | | | | / / / / / / x / / / / / / / x / |----3----| |----3----| Q Q Q Q Q Q H Q E E |-------------------------------|---------------------| |-------------------------------|---------------------| |-------------------------------|---------------------| |-------------------------------|---------------------| |--------------------------17---|---------------------| |-15---15---13---13---13--------|-13-------12---10-12-| C G5 +E E E E E E E E +E E E E E E E E | | | | | | | | | | | | | | | | / / / / / / x / / / / / / / x / Gtr II |----3----| |-3-| Q Q Q E E E E Q H Q E E |----------------------------|---------------------|| |----------------------------|---------------------|| |----------------------------|---------------------|| |----------------------------|---------------------|| |----------------------------|------------------3--|| |-13---12---10---10-12-10-12-|-10---8-----------3--|| Outro Bb6add9 C G5 +E E E E E E E E +E E E E E E E E +E E E E E E E E | | | | | | | | | | | | | | | | | | | | | | | | / / / / / / x / / / / / / / x / / / / / / / x / E Q. E E E E E Q. E E E E E Q. E E E E ||--------------------|-------------------|--------------------|| ||o-------------------|-------------------|-------------------o|| ||--------------------|-------------------|--------------------|| ||------------------7-|----5--------------|--------------------|| ||o----5------5-5-----|-----------------8-|----7------7-7---3-o|| ||-----3------3-3---6-|----6------6-6---8-|----8------8-8---3--|| -------------------------------------------------------------------------------- Duration Legend --------------- W - whole; H - half; Q - quarter; E - 8th; S - 16th; T - 32nd; X - 64th; a - acciaccatura + - note tied to previous; . - note dotted; .. - note double dotted Uncapitalized letters represent notes that are staccato (1/2 duration) Irregular groupings are notated above the duration line Duration letters will always appear directly above the note/fret number it represents the duration for. Duration letters with no fret number below them represent rests. Multi- bar rests are notated in the form Wxn, where n is the number of bars to rest for. Low melody durations appear below the staff Tablature Legend ---------------- h - hammer-on p - pull-off b - bend pb - pre-bend r - bend release (if no number after the r, then release immediately) / - slide into or out of (from/to "nowhere") s - legato slide S - shift slide - natural harmonic [n] - artificial harmonic n(n) - tapped harmonic ~ - vibrato tr - trill T - tap TP - trem. picking PM - palm muting n/ - tremolo bar dip; n = amount to dip n - tremolo bar down n/ - tremolo bar up /n - tremolo bar inverted dip = - hold bend; also acts as connecting device for hammers/pulls <> - volume swell (louder/softer) x - on rhythm slash represents muted slash o - on rhythm slash represents single note slash Misc Legend ----------- | - bar || - double bar ||o - repeat start o|| - repeat end *| - double bar (ending) : - bar (freetime) $ - Segno & - Coda Tempo markers - = BPM(8/16=s8/s16), where s8 = swing 8ths, s16 = swing 16ths -------------------------------------------------------------------------------- ** Generated using Power Tab Editor by Brad Larsen: The Official Power Tab Web Site

    искать в аптеке
    список лекарств






    О сайтеАккордыХит-парадПоискУроки ФорумыИщу песню
    ПрограммыСвежачок-сПодпискаСтатьи
    Яндекс.Метрика