Табулатура Avril Lavigne | I`m With You гитара табулатуры уроки тексты песен Avril Lavigne текст lyrics песня аккорды песни ноты нота электрогитара струна  
   А Б В Г Д Е Ж З И К Л М Н О П Р С Т У Ф Х Ч Ш Ы Э Ю Я       Разные песни
1-9 A B C D E F G H I J K L M N O P Q R S T U V W Y Z      Все исполнители in english

    



группа Avril Lavigne, Табулатура песни I`m With You

Продолжаем грести бабос на ботах в Telegram.
Только в этот раз есть вариант автоматизировать это дело, привлекая рефералов. Вы можете заработать если »

Группа: Avril Lavigne - другие аккорды (44),   об исполнителе (3 статей),   диски (2),   фотографии (13)
Табулатура песни: I`m With You
Просмотров: 1243
Подобрал: DiaSpar (diaspar@i.com.ua)




    
Date:    Monday, July 14, 2003, 4:18:13 PM
Intro (0:00)
  E=152
  A5       B5         D5
 6/8
  Gtr I
  PM----------------------------------------------|
  E. S S S E. S S S   E  S E S E.             S S S
|-------------------|-------------------------------|
|-------------------|-------------------------------|
|-------------------|-------------------------------|
|-2--2-x-x-4--4-x-x-|-7--7-7-7-7--------------7-x-x-|
|-0--0-x-x-2--2-x-x-|-5--5-5-5-5--------------5-x-x-|
|-------------------|-------------------------------|
|
| Gtr III
| W                   Q.       S   +S     +Q
|-------------------|-------------------------------|
|-------------------|-------------------------------|
|-------------------|----------6b7-(6)pb7r(6)-------|
|-------------------|-------------------------------|
|-------------------|-------------------------------|
|-------------------|-------------------------------|
  A5        B5         D5
  Gtr I
   PM--------------------------------------------------
   E. S S S E. S S S    E  S E S E.             S S S
|--------------------|--------------------------------|
|--------------------|--------------------------------|
|--------------------|--------------------------------|
|--2--2-x-x-4--4-x-x-|--7--7-7-7-7--------------7-x-x-|
|--0--0-x-x-2--2-x-x-|--5--5-5-5-5--------------5-x-x-|
|--------------------|--------------------------------|
|
| Gtr III
| +H.                  +Q.       S   +S     +E    E
|--------------------|--------------------------------|
|--------------------|--------------------------------|
|-(6)----------------|-(6)-------6b7-(6)pb7r(6)S==4S==|
|--------------------|--------------------------------|
|--------------------|--------------------------------|
|--------------------|--------------------------------|
  A5       B5             D5
 ----------------------------------------------|
  E. S S S  E. S  S   S   E  S E S E.      S S S
|-----------------------|-------------------------|
|-----------------------|-------------------------|
|-----------------------|-------------------------|
|-2--2-x-x--4--4--x---x-|-7--7-7-7-7-------7-x-x--|
|-0--0-x-x--2--2--x---x-|-5--5-5-5-5-------5-x-x--|
|-----------------------|-------------------------|
|
| Q.       +Q    +S   S   Q.       S S +Q
|-----------------------|-------------------------|
|-----------------------|-------------------------|
|-6--------(6)---(6)-\x-|----------6s9-(9)--------|
|---------------------x-|-------------------------|
|-----------------------|-------------------------|
|-----------------------|-------------------------|
  A5        B5           D5
  Gtr IV
   Q.        Q     +E     H.
|----------------------|------------------||
|-12--------14----(14)S|==3---------------||
|----------------------|------------------||
|----------------------|------------------||
|----------------------|------------------||
|----------------------|------------------||
|
| Gtr III
| +H.                    +H.
|----------------------|------------------||
|----------------------|------------------||
|-(9)------------------|-(9)--------------||
|----------------------|------------------||
|----------------------|------------------||
|----------------------|------------------||
|
| Gtr I
|  PM---------------------------------|
|  E. S S S  E. S   E     E. S S S E. S E
|----------------------|------------------||
|----------------------|------------------||
|----------------------|------------------||
|--2--2------4--4---4S=|==7--7-----7--7---||
|--0--0-0-0--2--2---2S=|==5--5-----5--5---||
|----------------------|-------5-5-5------||
 1st Verse
  F#5/C#                  D5/A
  Gtr I
   PM--------------------------------------|
   E.  S S S  E.  S S S   E. S S S E S S S S
|-----------------------|--------------------|
|-----------------------|--------------------|
|-----------------------|--------------------|
|-11--11-----11--11-----|-7--7-----7-7-7-----|
|--9---9------9---9-----|-5--5-----5-5-5-----|
|--9---9-9-9--9---9-x-x-|-5--5-5-5-5-5-5-x-x-|
  F#5/C#                     D5/A
  Gtr IV
   W                         Q.        Q.
|--------------------------|----------12----------|
|--------------------------|----------------------|
|--------------------------|----------------------|
|--------------------------|----------------------|
|--------------------------|----------------------|
|--------------------------|----------------------|
|
| Gtr I
|  PM----------------------------------------------
|  E S  S S S  E S  S S S    E. S S S  E  S S S S
|--------------------------|----------------------|
|--------------------------|----------------------|
|--------------------------|----------------------|
|-11---11-----11---11------|-7--7------7--7-7-----|
|--9----9------9----9-0-0--|-5--5------5--5-5-----|
|--9-9--9---9--9-9--9---x/-|-5--5-5-5--5--5-5-x-x-|
  F#5/C#
   S     +S       +Q         +Q.
|---------------------------------------|
|---------------------------------------|
|--6b6.5-(6)pb6.5r(6)--------(6)--------|
|---------------------------------------|
|---------------------------------------|
|---------------------------------------|
|
|-------------------------------------|
|  E.                  S S S  E.  S S S
|---------------------------------------|
|---------------------------------------|
|---------------------------------------|
|-11------------------11-----11--11-----|
|--9-------------------9------9---9-----|
|--9-------------------9-9-9--9---9-x-x-|
  D5/A                            F#5/C#                      D5/A
  Gtr IV
  Q.       S   +S     +Q          +H.                         W
|-------------------------------|---------------------------|-----------||
|-------------------------------|---------------------------|-----------||
|----------6b7-(6)pb7r(6)-------|-(6)-----------------------|-----------||
|-------------------------------|---------------------------|-----------||
|-------------------------------|---------------------------|-----------||
|-------------------------------|---------------------------|-----------||
|
| Gtr I
| PM----------------------------------------------------------|
| E. S S S E           S  S S S    E  S  S S S  E  S  S S S   Q  E Q.
|-------------------------------|---------------------------|-----------||
|-------------------------------|---------------------------|-----------||
|-------------------------------|---------------------------|-----------||
|-7--7-----7-----------7--7-----|-11----11-----11-11-11-----|-7---------||
|-5--5-----5-----------5--5-----|--9-----9------9--9--9---0-|-5---------||
|-5--5-5-5-5-----------5--5-x-x-|--9--9--9-9-9--9--9--9-----|-5---------||
 1st Pre-Chorus
  E                 N.C.(Bm)
  Gtr I
  E S S E E S S E   E E E Q  E
|-----------------|------------|
|-9-9-9-9-9-9-9-9-|------------|
|-9-9-9-9-9-9-9-9-|-9-7-6-4----|
|-9-9-9-9-9-9-9-9-|-x-x-x-x--7-|
|-7-7-7-7-7-7-7-7-|-7-5-4-2--x-|
|-0-0-0-0-0-0-0-0-|----------5-|
  E5open          D5/Aopen
  E S S E E E E   H.
|---------------|-------|
|---------------|-3-----|
|---------------|-2-----|
|-2-2-2-2-------|-0-----|
|-2-2-2-2-------|-0-----|
|-0-0-0-0-0-2-0-|-------|
 1st and 2nd Choruses
  $
  Asus2   Bsus4     D6sus2/A
  Gtr V
  W                 E Q         +Q      +E
|-----------------|----------------------------|
|-----------------|---5---------(5)-----(5)\---|
|-----------------|---7b9-------(7)-----(7)\---|
|-----------------|----------------------------|
|-----------------|----------------------------|
|-----------------|----------------------------|
|
| Gtr III
| E S S E E S S E   E S   S S S  E  S S  S   S
|-------5-------0-|----------------------------|
|-----2-----0---0-|---3---3-3-3--3--2-2--2---2-|
|---4-------4-4---|---2---2-2-2--2--2-2--2---2-|
|-0-----------4---|-0------------0-------------|
|---------2-------|-0--------------------------|
|-----------------|----------------------------|
|
| Gtrs I, IV
| E S S E E S S E   E S   S S S  E  S S  S   S
|-0-0-0-0-0-0-0-0-|-0-0---0-0-0--0--0-0--0---0-|
|-0-0-0-0-0-0-0-0-|-0-0---0-0-0--0--0-0--0---0-|
|-2-2-2-2-4-4-4-4-|-7-7---7-7-7--7--7-7--7---7-|
|-2-2-2-2-4-4-4-4-|-7-7---7-7-7--7--7-7--7---7-|
|-0-0-0-0-2-2-2-2-|-5-5---5-5-5--5--5-5--5---5-|
|-----------------|-5-5---5-5-5--5--5-5--5---5-|
  Asus2   Bsus4       D6sus2/A
  W                    E  Q         +Q      +E
|-------------------|----------------------------|
|-------------------|-----5---------(5)-----(5)\-|
|-------------------|-----7b9-------(7)-----(7)\-|
|-------------------|----------------------------|
|-------------------|----------------------------|
|-------------------|----------------------------|
|
| E S S E +Q.         +H.
|-------5-(5)-------|-(5)------------------------|
|-----x-------------|----------------------------|
|---2---------------|----------------------------|
|-------------------|----------------------------|
|-0-----------------|----------------------------|
|-------------------|----------------------------|
|
| E S S E  E  S S E    E  S   S S S  E  S S  E
|-0-0-0-0--0--0-0-0-|--0--0---0-0-0--0--0-0--0---|
|-0-0-0-0--0--0-0-0-|--0--0---0-0-0--0--0-0--0---|
|-2-2-2-2--4--4-4-4-|--7--7---7-7-7--7--7-7--7---|
|-2-2-2-2--4--4-4-4-|--7--7---7-7-7--7--7-7--7---|
|-0-0-0-0--2--2-2-2-|--5--5---5-5-5--5--5-5--5---|
|-------------------|--5--5---5-5-5--5--5-5--5---|
  Asus2   Bsus4     D6sus2/A
  Gtr III
  E S S E E S S E   E E   E   E E   E
|-------5---0-0-0-|-------5-----------|
|-----------3-3-3-|-------------------|
|---2-2-----4-4-4-|-6-7-------6-7---7-|
|---2-2-----4-4-4-|-------------------|
|-0-------2-------|-------------------|
|-----------------|-------------------|
|
| Gtrs I, IV
| E S S E E S S E   E S S S S E S S E
|-0-0-0-0-0-0-0-0-|-0-0-0-0-0-0-0-0-0-|
|-0-0-0-0-0-0-0-0-|-0-0-0-0-0-0-0-0-0-|
|-2-2-2-2-4-4-4-4-|-7-7-7-7-7-7-7-7-7-|
|-2-2-2-2-4-4-4-4-|-7-7-7-7-7-7-7-7-7-|
|-0-0-0-0-2-2-2-2-|-5-5-5-5-5-5-5-5-5-|
|-----------------|-5-5-5-5-5-5-5-5-5-|
  F#m       Eopen        Dsus2/A
  E E   E   Q.            H.
|----------------------|-------------------|
|---7---7---9----------|-10----------------|
|----------------------|-------------------|
|----------------------|-------------------|
|----------------------|-------------------|
|----------------------|-------------------|
|
| E S S S S E  S S S S    E  S S S S E E E
|-2-2-2-2-2-0--0-0-0-0-|--0--0-0-0-0-0-0-0-|
|-2-2-2-2-2-0--0-0-0-0-|--3--3-3-3-3-3-3-3-|
|-2-2-2-2-2-1--1-1-1-1-|--2--2-2-2-2-2-2-2-|
|-4-4-4-4-4-2--2-2-2-2-|--0--0-0-0-0-0-0-0-|
|-4-4-4-4-4-2--2-2-2-2-|--0--0-0-0-0-0-0-0-|
|-2-2-2-2-2-0--0-0-0-0-|-------------------|
  F#5/C#                      D5/A
  Gtr III
                                    ~~~
   W                            E   Q        +Q.
|---------------------------|-------------------------------|
|---------------------------|-------7--------(7)s===========|
|---------------------------|-------------------------------|
|---------------------------|-------------------------------|
|---------------------------|-------------------------------|
|---------------------------|-------------------------------|
|
| Gtr IV
|      ~~~~~~~~~~~~~~
|  E   Q         +Q.           +e   Q.            +Q
|---------------------------|-------------------------------|
|-----14--------(14)--------|-(14)S10------------(10)-------|
|-----14--------(14)--------|-(14)S11------------(11)-------|
|---------------------------|-------------------------------|
|---------------------------|-------------------------------|
|---------------------------|-------------------------------|
|
| Gtr I
|  PM--------------------------------------------------------
|  E.     S S S   E.  S S S     E.     S S S  E    S  S S S
|---------------------------|-------------------------------|
|---------------------------|-------------------------------|
|---------------------------|-------------------------------|
|-11-----11------11--11-----|---7------7------7----7--7-----|
|--9------9-------9---9-----|---5------5------5----5--5-----|
|--9------9-9-9---9---9-x-x-|---5------5-5-5--5----5--5-x-x-|
                                                        To Coda
  F#5/C#                            D5/A
    ~~~~
    H.                                E   Q        E E   +E
|---------------------------------|-----------------------------||
|---5-----------------------------|---6---7--------7s9---(9)s===||
|---------------------------------|-----------------------------||
|---------------------------------|-----------------------------||
|---------------------------------|-----------------------------||
|---------------------------------|-----------------------------||
|
|  +E   Q.             +Q            +E   Q        Q.
|---------------------------------|-----------------------------||
|-(10)-14-------------(14)--------|-(14)S10-------10------------||
|-(11)-14-------------(14)--------|-(14)S11---------------------||
|---------------------------------|-----------------------------||
|---------------------------------|-----------------------------||
|---------------------------------|-----------------------------||
|
|-|           PM--------------------|         PM-------------|
|   E.      S S S  E.       S S S     E.    S S S  E S S  S  S
|---------------------------------|-----------------------------||
|---------------------------------|-----------------------------||
|---------------------------------|-----------------------------||
|--11------11-----11-------11-----|---7-----7------7-7-7--------||
|---9-------9------9--------9-----|---5-----5------5-5-5--------||
|---9-------9-9-9--9--------9-x-x-|---5-----5-5-5--5-5-5--x--x--||
 2nd Verse
  F#5/C#                     D5/A
  Gtr III
   H.                        W
|--------------------------|---------------------|
|--6-----------------------|---------------------|
|--------------------------|---------------------|
|--------------------------|---------------------|
|--------------------------|---------------------|
|--------------------------|---------------------|
|
| Gtr VI
|  Q.         S  E.    S S   Q.       E  E   E
|--------------------------|---------------------|
|--------------------------|---------------------|
|--------------------------|----------9s11s==9s==|
|-------------9s11-----9s7-|-7--------x----------|
|-------------x--------x---|-x--------7s=9s==7s==|
|-------------7s=9-----7s5-|-5-------------------|
|
| Gtr I
|  PM---------------------------------------------
|  E.  S S S  E.     S S S   E. S S S E  S S S S
|--------------------------|---------------------|

Продолжаем грести бабос на ботах в Telegram.
Только в этот раз есть вариант автоматизировать это дело, привлекая рефералов. Вы можете заработать если »

|--------------------------|---------------------| |--------------------------|---------------------| |-11--11-----11-----11-----|-7--7-----7--7-7-----| |--9---9------9------9-----|-5--5-----5--5-5-----| |--9---9-9-9--9------9-x-x-|-5--5-5-5-5--5-5-x-x-| F#5/C# D5/A W W |---------------------------|--------------------------| |---------------------------|--------------------------| |---------------------------|--------------------------| |---------------------------|--------------------------| |---------------------------|--------------------------| |---------------------------|--------------------------| | | H. S S S S E S S S S E |---------------------------|--------------------------| |---------------------------|--------------------------| |--6------------------------|--------------------------| |---------------------------|-4--4-4-4-4---4-4-4-4-4---| |--4------------------------|--------------------------| |---------------------------|--------------------------| | |----------------------------------------------------| | E S S S S E S S S S E. S S S E S S S S |---------------------------|--------------------------| |---------------------------|--------------------------| |---------------------------|--------------------------| |-11----11-----11---11------|-7------7-----7---7-7-----| |--9-----9------9----9-0-0--|-5------5-----5---5-5-----| |--9--9--9---9--9-9--9---x/-|-5------5-5-5-5---5-5-x-x-| F#5/C# Gtr III ~~~~~~~~~~~~~~~~~~ S E. +E +Q. |---------------------------------| |---------------------------------| |--9s11-----(11)---(11)-----------| |---------------------------------| |---------------------------------| |---------------------------------| | | Gtr VI | Q. S E. S S |---------------------------------| |---------------------------------| |---------------------------------| |--------------------9s11-----9s7-| |--------------------x--------x---| |--------------------7s=9-----7s5-| | | Gtr I | PM------------------------------ | E. S S S E. S S S |---------------------------------| |---------------------------------| |---------------------------------| |-11-----11---------11-----11-----| |--9------9----------9------9-----| |--9------9---9--9---9------9-x-x-| D5/A F#5/C# ~~~ +Q. E E S S H. |-------------------------|---------------------------| |-------------------------|---------------------------| |-(11)-------11--9---9s11-|-11------------------------| |-------------x--x---x--x-|--x------------------------| |-------------9--7---7s=9-|--9------------------------| |-------------------------|---------------------------| | | Q. E E E H. |-------------------------|---------------------------| |-------------------------|---------------------------| |-------------9s11s==9s===|==6------------------------| |---7---------x-----------|---------------------------| |---x---------7s=9s==7s===|==4------------------------| |---5---------------------|---------------------------| | |--------------------------------------------------| | E. S S S E S S S S E S S S S E S S S S |-------------------------|---------------------------| |-------------------------|---------------------------| |-------------------------|---------------------------| |---7--7------7--7-7------|-11----11-----11---11------| |---5--5------5--5-5------|--9-----9------9----9-0-0--| |---5--5-5-5--5--5-5-x--x-|--9--9--9---9--9-9--9---x/-| Second Pre-Chorus D5/A E N.C.(Bm) Gtr III +Q. Q. W W |-----------------------|------------------|-------------| |-----------------------|------------------|-------------| |-(11)------------------|------------------|-------------| |-----------------------|------------------|-------------| |--(9)------------------|------------------|-------------| |-----------------------|------------------|-------------| | | Gtr V | Q. E S S S S H. W |-----------------------|------------------|-------------| |---------------3p2-----|------------------|-------------| |-------------------2---|------------------|-------------| |---------------------4-|-2----------------|-------------| |-----------------------|------------------|-------------| |-----------------------|------------------|-------------| | | Gtr I | PM----------------| | E. S S S E S S S S E S S E E S S E E E E E E E |-----------------------|------------------|---------0---| |-----------------------|-9--9-9-9-9-9-9-9-|-------------| |-----------------------|-9--9-9-9-9-9-9-9-|-9-7-6-4-----| |---7--7-----7--7-7-----|-9--9-9-9-9-9-9-9-|-x-x-x-x---7-| |---5--5-----5--5-5-----|-7--7-7-7-7-7-7-7-|-7-5-4-2---x-| |---5--5-5-5-5--5-5-x-x-|-0--0-0-0-0-0-0-0-|-----------5-| D.S. al Coda (E) Dsus2/A Gtr I Q. Q. H. |-----------|-0------| |-----------|-3------| |-----------|-2------| |-6---------|-0------| |-x---------|-0------| |-4----0----|--------| Bridge (2:12) & E5 Bsus4 E5 Bsus4 Gtr I E S S E E S S E E S S S S E S S E E S S E E S S E E S S S S E E E |-0--0-0-0-0-0-0-0-|-0--0-0-0-0-0-0-0-0-|-0--0-0-0-0-0-0-0-|-0--0-0-0-0-0-0-0-| |-0--0-0-0-0-0-0-0-|-0--0-0-0-0-0-0-0-0-|-0--0-0-0-0-0-0-0-|-0--0-0-0-0-0-0-0-| |-9--9-9-9-9-9-9-9S|=4--4-4-4-4-4-4-4-4S|=9--9-9-9-9-9-9-9-|-4--4-4-4-4-4-4-4-| |-9--9-9-9-9-9-9-9S|=4--4-4-4-4-4-4-4-4S|=9--9-9-9-9-9-9-9-|-4--4-4-4-4-4-4-4-| |-7--7-7-7-7-7-7-7S|=2--2-2-2-2-2-2-2-2S|=7--7-7-7-7-7-7-7-|-2--2-2-2-2-2-2-2-| |-0--0-0-0-0-0-0-0-|--------------------|------------------|------------------| | | Gtr II | H. H. H. H. |-0----------------|--------------------|-0----------------|------------------| |-0----------------|-0------------------|-0----------------|-0----------------| |-9----------------|-4------------------|-9----------------|-4----------------| |-9----------------|-4------------------|-9----------------|-4----------------| |-7----------------|-2------------------|-7----------------|-2----------------| |-0----------------|--------------------|-0----------------|------------------| E5 D6sus2 Gtr I E S S S S E S S S S E E E E E E |-0--0-0-0-0-0-0-0-0-0-|-0--0-0-0-0-0-| |-0--0-0-0-0-0-0-0-0-0-|-0--0-0-0-0-0-| |-9--9-9-9-9-9-9-9-9-9-|-7--7-7-7-7-7-| |-9--9-9-9-9-9-9-9-9-9-|-7--7-7-7-7-7-| |-7--7-7-7-7-7-7-7-7-7-|-5--5-5-5-5-5-| |-0--0-0-0-0-0-0-0-0-0-|--------------| | | Gtr II | H. H. |-0--------------------|--------------| |-0--------------------|--------------| |-9--------------------|-7------------| |-9--------------------|-7------------| |-7--------------------|-5------------| |-0--------------------|-5------------| C#m7 E5 E S S S S E S S S S E S S S S E E E |-0--0-0-0-0--0--0-0--0--0-|-0--0-0-0-0-0-0-0--| |-0--0-0-0-0--0--0-0--0--0-|-0--0-0-0-0-0-0-0--| |-6--6-6-6-6--6--6-6--6--6-|-9--9-9-9-9-9-9-9--| |-6--6-6-6-6--6--6-6--6--6-|-9--9-9-9-9-9-9-9--| |-4--4-4-4-4--4--4-4--4--4-|-7--7-7-7-7-7-7-7--| |--------------------------|-------------------| | | Q. +Q +E H. |--------------------------|-------------------| |--------------------------|-------------------| |-6----------(6)-----(6)S==|=9-----------------| |-6----------(6)-----(6)S==|=9-----------------| |-4----------(4)-----(4)S==|=7-----------------| |-4----------(4)-----(4)S==|=7-----------------| A5 B5 D5 A5 B5 Gtr I E. S S S E S S E E S S S S E S S S S E S S S S E S S S S |------------------|---------------------|----------------------| |------------------|---------------------|----------------------| |------------------|---------------------|----------------------| |-2--2-2-2-4-4-4---|-7-7-7-7-7-7-7-7-7---|-2-2-2-2-2-4-4-4------| |-0--0-0-0-2-2-2-x-|-5-5-5-5-5-5-5-5-5---|-0-0-0-0-0-2-2-2-x-x--| |------------------|---------------------|----------------------| D5 A5 B5 D5 Gtr I E S S S S E S S S S E. S S S E S S S S E S S S S E S S S S |---------------------|--------------------|---------------------| |---------------------|--------------------|---------------------| |---------------------|--------------------|---------------------| |-7-7-7-7-7-7-7-7-----|-2--2-2-2-4-4-4-----|-7-7-7-7-7-7-7-7-7---| |-5-5-5-5-5-5-5-5-0-0-|-0--0-0-0-2-2-2-x-x-|-5-5-5-5-5-5-5-5-5---| |-5-------------------|--------------------|---------------------| F#m Eopen Dsus2 Gtrs I, IV E S S E Q S S E E E E E E |-2-2-2-2-0--0-0-|-0-0-0-0-----| |-2-2-2-2-0--0-0-|-3-3-3---3---| |-2-2-2-2-1--1-1-|-2-2-2-----2-| |-4-4-4-4-2--2-2-|-0-0-0-------| |-4-4-4-4-2--2-2-|-------------| |-2-2-2-2-0--0-0-|-------------| | | Gtr II | W E E E E E E |----------------|-------------| |----------------|-3-3-3-3-3-3-| |----------------|-2-2-2-2-2-2-| |----------------|-0-0-0-0-0-0-| |----------------|-0-0-0-0-0-0-| |----------------|-------------| 3rd Chorus Asus2 Bsus4 D6sus2/A Asus2 Bsus4 Gtr V W E Q +Q +E W ||----------------------|----12----------(12)-----(12)\-|---------------------- | ||o---------------------|----15b17-------(15)-----(15)\-|---------------------- | ||----------------------|-------------------------------|----------------------| ||----------------------|-------------------------------|----------------------| ||o---------------------|-------------------------------|----------------------| ||----------------------|-------------------------------|----------------------| | | Gtrs I, IV | E S S E E S S S S E S S S S E S S E E S S E E S S S S ||--0--0-0-0-0--0-0-0-0-|-0---0----0-0-0---0--0-0---0---|-0--0-0-0-0--0-0-0-0--| ||o-0--0-0-0-0--0-0-0-0-|-0---0----0-0-0---0--0-0---0---|-0--0-0-0-0--0-0-0-0--| ||--2--2-2-2-4--4-4-4-4-|-7---7----7-7-7---7--7-7---7---|-2--2-2-2-4--4-4-4-4--| ||--2--2-2-2-4--4-4-4-4-|-7---7----7-7-7---7--7-7---7---|-2--2-2-2-4--4-4-4-4--| ||o-0--0-0-0-2--2-2-2-2-|-5---5----5-5-5---5--5-5---5---|-0--0-0-0-2--2-2-2-2--| ||----------------------|-5---5----5-5-5---5--5-5---5---|----------------------| | | Gtr II | Q. Q. H. Q. Q. ||----------------------|-------------------------------|----------------------| ||o---------------------|-3-----------------------------|----------------------| ||--2--------4----------|-2-----------------------------|-2--------4-----------| ||--2--------4----------|-0-----------------------------|-2--------4-----------| ||o-0--------2----------|-0-----------------------------|-0--------2-----------| ||----------------------|-------------------------------|----------------------| D6sus2/A Dmaj7sus2 Asus2Bsus4 D6sus2/A F#m E Gtr V E Q +Q +E W W W |----12----------(12)----(12)\-|------------|--------------|------------------- | |----15b17-------(15)----(15)\-|------------|--------------|------------------- | |------------------------------|------------|--------------|-------------------| |------------------------------|------------|--------------|-------------------| |------------------------------|------------|--------------|-------------------| |------------------------------|------------|--------------|-------------------| | | Gtrs I, IV | E S S S S S S Q E Q E E E E E E E E E E S S E E S S E |-0---0----0-0-0---0---0-------|-0-0--0-0-0-|-0--0-0-0-0-0-|-2--2-2-2-0--0-0-0-| |-0---0----0-0-0---2h3-2-------|-0-0--0-0-0-|-0--0-0-0-0-0-|-2--2-2-2-0--0-0-0-| |-7---7----7-7-7---2---2-------|-2-2--4-4-4-|-7--7-7-7-7-7-|-2--2-2-2-1--1-1-1-| |-7---7----7-7-7---0---0-------|-2-2--4-4-4-|-7--7-7-7-7-7-|-4--4-4-4-2--2-2-2-| |-5---5----5-5-5---------------|-0-0--2-2-2-|-5--5-5-5-5-5-|-4--4-4-4-2--2-2-2-| |-5---5----5-5-5---------------|------------|-5--5-5-5-5-5-|-2--2-2-2-0--0-0-0-| | | Gtr II | H. E Q E E E H. Q. Q. |------------------------------|------------|--------------|-------------------| |-3----------------------------|------------|-3------------|-------------------| |-2----------------------------|-2-2--4-4-4-|-2------------|-------------------| |-0----------------------------|-2-2--4-4-4-|-0------------|-4--------2--------| |-0----------------------------|-0-0--2-2-2-|-0------------|-4--------2--------| |------------------------------|------------|--------------|-2--------0--------| Outro 1. 2. D5/Aopen D5/Aopen Gtrs I, IV E E E E E E E Q +Q. |--------------||-------------| |-3-3-3-3-3-3-o||-3--3--(3)---| |-2-2-2-2-2-2--||-2-----------| |-0-0-0-0-0-0--||-0-----------| |-0-0-0-0-0-0-o||-0-----------| |--------------||-------------| | | Gtr II | E E E E E E H. |--------------||-------------| |-3-3-3-3-3-3-o||-3-----------| |-2-2-2-2-2-2--||-2-----------| |-0-0-0-0-0-0--||-0-----------| |-0-0-0-0-0-0-o||-0-----------| |--------------||-------------| F#5/C# D5/A Gtr I E S E S S S S E. E S E S E S S E |------------------------|-----------------| |------------------------|-----------------| |------------------------|-----------------| |-11-11-11---11-11-11-11S|=7-7-7-7-7-7-7-7-| |--9--9--9----9--9--9--9S|=5-5-5-5-5-5-5-5-| |--9--9--9-9--9--9--9--9S|=5-5-5-5-5-5-5-5-| F#5/C# Gtr III E S S S S +Q. |--------------------------------| |--------------------------------| |--------------------------------| |-----7--9-9-11-(11)-------------| |--------------------------------| |--------------------------------| | | Gtr I | E S E S E S S S S |--------------------------------| |--------------------------------| |--------------------------------| |-11-11-11---11--11--11-11-11-11-| |--9--9--9----9---9---9--9--9--9-| |--9--9--9----9---9---9--9--9--9-| D5/A A5V S +S +Q +E. S S S H. |--------------------------------------|-------*| |--------------------------------------|-------*| |--------------------------------------|-------*| |-11b12-(11)pb12r(11)-----(11)---7-7-7-|-7-----*| |--------------------------------------|-------*| |--------------------------------------|-------*| | | E S E S E S S S S H. |--------------------------------------|-------*| |--------------------------------------|-------*| |--------------------------------------|-------*| |--7---------------7--7-7---7--7-7-7---|-------*| |--5---------------5--5-5---5--5-5-5-5-|-7-----*| |--5---------------5--5-5---5--5-5-5-5-|-5-----*|

искать в аптеке
список лекарств






О сайтеАккордыХит-парадПоискУроки ФорумыИщу песню
ПрограммыСвежачок-сПодпискаСтатьи
Яндекс.Метрика