Табулатура Мастер | Когда Я Умру гитара табулатуры уроки тексты песен Мастер текст lyrics песня аккорды песни ноты нота электрогитара струна  
   А Б В Г Д Е Ж З И К Л М Н О П Р С Т У Ф Х Ч Ш Ы Э Ю Я       Разные песни
1-9 A B C D E F G H I J K L M N O P Q R S T U V W Y Z      Все исполнители

    



группа Мастер, Табулатура песни Когда Я Умру

Продолжаем грести бабос на ботах в Telegram.
Только в этот раз есть вариант автоматизировать это дело, привлекая рефералов. Вы можете заработать если »

Группа: Мастер - другие аккорды (23),   о группе (2 статей),   диски (9),   фотографии (4)
Табулатура песни: Когда Я Умру
Просмотров: 1587
Подобрал: Gfif и xxxSergeixxx (gfif4@yandex.ru)




    
Gtr2e|--------------------------------------------------| \
    H|--------------------------------------------------|  \
    G|-----------0-----------0-----------0-----------0--|   \
    D|--------4-----------4-----------4-----------4-----|    \
    A|-----2-----------2-----------2-----------2--------|     \
    E|--0-----------0-----------0-----------0-----------|      \
                                                                \
Gtr2e|--------------------------------------------------|        \
    H|--------------------------------------------------|         \
    G|-----------0-----------0-----------0-----------0--|          \
    D|--------4-----------4-----------4-----------4-----|           \
    A|-----3-----------3-----------3-----------3--------|            \
    E|--3-----------3-----------3-----------3-----------|             \
                                                                        
играть 2 раза
Gtr2e|--------------------------------------------------|             /
    H|--------------------------------------------------|            /
    G|-----------0-----------0-----------0-----------0--|           /
    D|--------0-----------0-----------0-----------0-----|          /
    A|-----2-----------2-----------2-----------2--------|         /
    E|--3-----------3-----------3-----------3-----------|        / 
                                                                /
Gtr2e|--------------------------------------------------|      /
    H|--------------------------------------------------|     /
    G|-----------0-----------0-----------0-----------0--|    /
    D|--------2-----------2-----------4-----------1-----|   /
    A|-----3-----------3-----------5-----------2--------|  /
    E|--3-----------3-----------5-----------2-----------| /
Гитара2 продолжает играть то же самое, начинает гитара1:
Gtr1e|--------------------------------------------------|
    H|-6--------------------------------------------6---|
    G|-----5-------0---------------------------5--------|
    D|---------6-------3-----------3------6-------------|
    A|--------------------------3-----------------------|
    E|--------------------------------------------------|
Gtr2e|--------------------------------------------------| 
    H|--------------------------------------------------|  
    G|-----------0-----------0-----------0-----------0--|  
    D|--------4-----------4-----------4-----------4-----|  
    A|-----2-----------2-----------2-----------2--------|  
    E|--0-----------0-----------0-----------0-----------|

Продолжаем грести бабос на ботах в Telegram.
Только в этот раз есть вариант автоматизировать это дело, привлекая рефералов. Вы можете заработать если »

Gtr1e|--------------------------------------------------| H|--------------------------------------------------| G|----------------5h6---8---6p5---------------------| D|--------------------------------5~----------------| A|--------------------------------------------------| E|--------------------------------------------------| Gtr2e|--------------------------------------------------| H|--------------------------------------------------| G|-----------0-----------0-----------0-----------0--| D|--------4-----------4-----------4-----------4-----| A|-----3-----------3-----------3-----------3--------| E|--3-----------3-----------3-----------3-----------| Gtr1e|--------------------------------------------------| H|----------12---10---8---12^------13--12--10-------| G|-8-8-9--------------------------------------------| D|--------------------------------------------------| A|--------------------------------------------------| E|--------------------------------------------------| Gtr2e|--------------------------------------------------| H|--------------------------------------------------| G|-----------0-----------0-----------0-----------0--| D|--------0-----------0-----------0-----------0-----| A|-----2-----------2-----------2-----------2--------| E|--3-----------3-----------3-----------3-----------| Gtr1e|---------------------------------------| H|-----------12--12--12----10--8---------| G|----------------------------------9-11-| D|---------------------------------------| A|---------------------------------------| E|---------------------------------------| Gtr2e|--------------------------------------------------| H|--------------------------------------------------| G|-----------0-----------0-----------0-----------0--| D|--------2-----------2-----------4-----------1-----| A|-----3-----------3-----------5-----------2--------| E|--3-----------3-----------5-----------2-----------| З.Ы. Остаток соляка подобрать не получилось, да и влом было. Может как-нибудь потом...

поиск лекарств
список лекарств






О сайтеАккордыХит-парадПоискУроки ФорумыИщу песню
ПрограммыСвежачок-сПодпискаСтатьи
Яндекс.Метрика